Song name
# A B C D E F G H I J K L M N O P Q R S T U V W X Y Z

Cydne Raven - In Two tab

Didnt See Any Tabs Up For These Dudes So i Decided to Tab it For You.
Band Website-www21.brinkster.com/cydneraven
Artist-Cydne Raven
Album-Forgetting you was easy, Forgiving you was Murder
In Two
~Drop C~

[0.01-0:41]
|-----------------------------------------------------|
|-----------------------------------------------------|
|-----------------101010888777-----888777-------------|
|---555777888555---------------8----------8-0-8-0-7---| x8
|--------------------------------8----------0---0-----|

[0:41-1:04]
|-----------------------------------------------------|
|-----------------------------------------------------|
|-----------10-9-7h8p7---7-8---10-9-------------------| x4
|---5--7-8-------------8-----8------------------------|
|-----------------------8-----8-----9-----------------|

[1:04-1:30]
|-----------------------------------------------------|
|-----------------------------------------------------|
|---10-------10--------10--------10101010-------------| x2
|-00--0-0000----0-0000----0-0000----------------------|
|-00--0-0000 ---0-0000----0-0000------------8---------|

on 2nd time end with this
[1:30-1:33]
|-------------------|
|-------------------|
|-10108877----------| x1
|----------8-0-8-0-7|
|------------0---0--|

i stopped tabbing at [1:33]


This is More than Half the Song Not all of it. I'm too lazy and besides im sure you can 
it out your self.

Email me @ Kahluaboy15@yahoo.com

Corrections Are Welcome :)
Tap to rate this tab
 
# A B C D E F G H I J K L M N O P Q R S T U V W X Y Z