Song name
# A B C D E F G H I J K L M N O P Q R S T U V W X Y Z

Cymande - Brothers On The Slide tab

#----------------------------------PLEASE NOTE---------------------------------#
#This file is the author's own work and represents their interpretation of the #
#song. You may only use this file for private study, scholarship, or research. #
#------------------------------------------------------------------------------##


Brothers on the Slide

(from Cymande's third album "Promised Heights")

A classic!

Tabbed by Nocentelli
leeroybrun@hotmail.com

One of my favourite riffs: The first part of the intro also serves as the verse riff.

Guitar goes up to a D chord stab on the lyrics "slowly sliding..we're doin' all that we can"


-----------------------------------------------|
-----------------------------------------------|
-------------------5-5>7>5---------------------|
---7--5--7----5>7------------------------------|
----------------------------7-7-8----5-3-------|
-----------------------------------------------|


----------------------------------------------------------|
----------------------------------------------------------|
-----------------5-5>7>5----------------------------------|
---7--5--7--5>7--------------------------5->7>5-----------|
---------------------------7-7-8---5>7-----------7-5------|
----------------------------------------------------------|

----------------------------------------------|
----------------------------------------------|
-----------------5-5>7>5----------------------|
---7--5--7--5>7-------------------------------|
-------------------------7-7-8---5--3---------|
----------------------------------------------|

-----------------------------------------------|
-----------------------------------------------|
-------------------5-5>7>5---------------------|
---7--5--7----5>7------------------------------|
----------------------------7-7-8--------------|
-----------------------------------------------|
Tap to rate this tab
# A B C D E F G H I J K L M N O P Q R S T U V W X Y Z