Song name
# A B C D E F G H I J K L M N O P Q R S T U V W X Y Z

Cymbals Eat Guitars - Shore Points tab

E||--------------------------|--------------------------|
B||-----------3-----2--------|-----------4--------4--2--|
G||--------2-----------2-----|--------2-----------------|
D||-----4-----------------2--|-----4-----------4--------|
A||--0-----------0-----------|--2-----------2-----------|
E||--------------------------|--------------------------|


-----------0--------------|---------------------------|
-----------------2--------|-----------0---------------|
--------2-----------2-----|--------------------/6--2--|
-----4-----------------2--|--------3------------------|
--5-----------0-----------|-----4-----------4---------|
--------------------------|--4-----------4------------|
Tap to rate this tab
# A B C D E F G H I J K L M N O P Q R S T U V W X Y Z