Song name
# A B C D E F G H I J K L M N O P Q R S T U V W X Y Z

Cymbals Eat Guitars - Shore Points tab

CAPO 2nd fret

E||--------------------------|--------------------------|
B||-----------3-----0--------|-----------4--------4--0--|
G||--------0-----------0-----|--------0-----------------|
D||-----4-----------------0--|-----4-----------4--------|
A||--------------------------|--0-----------0-----------|
E||---5----------5-----------|--------------------------|


--------------------------|---------------------------|
-----------5-----0--------|---------------------------|
--------0-----------0-----|-----------5--------/6--0--|
-----4-----------------0--|--------3------------------|
--5-----------------------|-----4-----------4---------|
--------------5-----------|--4-----------4------------|
Tap to rate this tab
# A B C D E F G H I J K L M N O P Q R S T U V W X Y Z