Guitaretab - guitar tabs
Song name
# A B C D E F G H I J K L M N O P Q R S T U V W X Y Z

Cynic - Veil Of Maya tab

Cynic  Veil of Maya
The other tab is nearly perfect, I just disagree with how "unregistered" tabbed the solo.


1st Solo
Let resonate
|-------------------------------------------------------7---------------|
|---8-/10\---P-H-------8---(8)-/12---12--13-12-------------8------------|
|-----------9-8-9~~~---------------------------12-11----------11~~------|
|---10/12\-------------10--(10)/14---14---------------------------------|
|-----------------------------------------------------------------------|
|-----------------------------------------------------------------------|


Let resonate ---|        hold --------------------------------------------|
|--------2-----3------------7-----------------8--8--10--8----10/-12-------|
|----5-----5----------------8-----------------7--8--8---7----8-/-10-------|
|--4---4-----4--------------9---------------------------------------------|
|------------------------7------------------------------------------------|
|-------------------------------------------------------------------------|
|-------------------------------------------------------------------------|


|--12--8-------------14----14-----------12\-----------7-----------------|
|--10--10--------------12----12\10--10--------------8-------------------|
|------------------------13-----------11----------9---------------------|
|----------------------------------------------10-----------------------|
|-----------------------------------------------------------------------|
|-----------------------------------------------------------------------|
gliss|			      gliss|
|-----10b12-----------12-10-------8-10/12-------5\3/7~~~~~~------------|
|---8--------------8-------------8--------------------------------------|
|--9------------9---------------9---------------------------------------|
|------------------------------8----------------------------------------|
|-----------------------------------------------------------------------|
|-----------------------------------------------------------------------|

2nd solo

|------------T-----------//24~~\22~~-21-------|
|---12-14-15-19-15-14-12---------------22-----|
|----------------------------------------21\\-|
|---------------------------------------------|
|---------------------------------------------|
|---------------------------------------------|
[ Tab from: http://www.guitaretab.com/c/cynic/37023.html ]
			  with whammy-->^^^     ^^^
|-----------------------------------------------17----------------------|
|--17-19-20--19-17----------------------19------20----------------------|
|---------------------------------17\\--16------------------------------|
|------------------20-------1916----------------------------------------|
|-----------------------1917--------------------------------------------|
|---------------------17------------------------------------------------|
                       h  h  T  p  p  p
|--------------------12-15-17-19-17-15-12-----------------------------------|
|--------------12h15----------------------17-12-15-17-15-12-------------//22|
|-----------15-----------------------------------------------17-12-15/24----|
|-----12h17-----------------------------------------------------------------|
|---------------------------------------------------------------------------|
|---------------------------------------------------------------------------|
			                   T    p     T    p (see note)**
|---19b21--17---------------------10-9-7-9-10//-9-7-----------------------------|
|-------------19-18-17----------------------------------------------------------|
|----------------------19-18-17----------------------10//--7-6-7-9-7-6----------|
|----------------------------------------------------------------------9-7-6----|
|-------------------------------------------------------------------------------|
|-------------------------------------------------------------------------------|

sweeping
|-----------17-----------19p17---------------------21b22r-19---------------------|
|---------15-----------17-----19-----------------19---------19---22-19-----------|
|-------17-----------19---------17-------------21-------------21--------17\14----|
|-----15-----------17-------------19---------19----------------------------------|
|---17-----------19-----------------17-----21------------------------------------|
|-15-----------17---------------------19-19--------------------------------------|
           T                 T                 T                  T
|----12h17-19-17-12-----------------------------------------------------------------|
|-15----------------17-12-17-21-17-12-----------------------------------------------|
|-------------------------------------17-12-17-19-17-12-----------------------------|
|--------------------------------------------------------17-12-17-21-17-12----------|
|--------------------------------------------------------------------------17-12-17-|
|-----------------------------------------------------------------------------------|
    T        T        T        T
|-----------------------------------------------------------------------|
|-----------------------------------------------------------------------|
|---19-17-12-21-17-12---------------------------------------------------|
|---------------------19-17-12-21-17-12---------------------------------|
|---------------------------------------17-12-17-12---------------------|
|----------------------------------------------------17-12-17-12\\\-----|


** Slide up with your tapping finger, then release it so that the fretted note below it 
out

gliss= glissandi = play the notes really quickly, skim over them almost (used generally 
emphasis)
h    = hammer on
p    = pull off
b x  = bend to x
r    = release bend
T    = tap
x/y  = slide from x up to y
y\x  = slide from y down to x
//x  = slide from anywhere to x
x\\  = slide down to anywhere from x
x\\\ = slide down to zero from x
Related for Veil Of Maya tab