Song name
# A B C D E F G H I J K L M N O P Q R S T U V W X Y Z

Cypress Hill - Rise Up tab

This is the main riff which runs throughout the song, not including the whammy solo.

e---------------------------------------------------------|
b---------------------------------------------------------|
g---------------------------------------------------------|
d------5-6-7----------------------------------------------|
a--0~--------0--3-4-5---------------3--5-----7-7-7-7-6-5--|
E--------------------------0--3~---5----------------------|

e---------------------------------------------------------|
b---------------------------------------------------------|
g---------------------------------------------------------|
d------5-6-7----------------------------------------------|
a--0~--------0--3-4-5---------------3--5-----7-7--5-6-7---|
E--------------------------0--3~---5----------------------|
Tap to rate this tab
# A B C D E F G H I J K L M N O P Q R S T U V W X Y Z