Song name
# A B C D E F G H I J K L M N O P Q R S T U V W X Y Z

Cypress Hill - Pigs tab

Cypress Hill  Pigs
==============================================

These are the two main parts:

Guitar part:

            E    Q        E    Q              E    Q        E    Q      
E||-----------------------------------|----------------------------------|
B||--------------16~-----------20b----|------------16~-----------20b-----|
G||---------15------------15----------|-------15------------15-----------|
D||-----------------------------------|----------------------------------|
A||-----------------------------------|----------------------------------|
E||-----------------------------------|----------------------------------|

Bass part: 

     E  E  E   E   E  E  S  S  E     E  E  E   E   E  E  S  S  E   
G||-------------------------------|-------------------------------|
D||----------------8--8--10-8-10--|----------------8--8--10-8-10--|
A||--6--6--10--10-----------------|--6--6--10--10-----------------|
E||-------------------------------|-------------------------------|


These repeat almost constantly throughout the song.


Cooky.
Tap to rate this tab
# A B C D E F G H I J K L M N O P Q R S T U V W X Y Z