Song name
# A B C D E F G H I J K L M N O P Q R S T U V W X Y Z

Cypress Hill - Rise Up tab

-------------------------------------------------------------------------------
			     Rise Up - Cypress Hill
-------------------------------------------------------------------------------



				Tabbed by: GI_1963
			  Email: azkid1963@hotmail.com



I'm apalled that noone has got this down its comletely easy, solo and all. 
I did this within 10 min. of watching this on Jimmy Kimmel's Website on ABC.com. 

I have not heard the album version yet because i have yet to buy it, but 
I'm pretty shure the song isn't much different from the Live one on Jimmy Kimmel.



Intro/Verse x10
Chorus x2
Intro/Verse x8
Chorus x2
Solo x4
Bridge x1
Intro/Verse x4
Chorus x2

A long pickscrape with the phaser on starts off the song.

Intro/Verse (with a Phase 90 phaser)

e-----------------------------------------------------|
B-----------------------------------------------------|
G---------------x-5---------x-5---------x-5-----------|
D---5h7-7-7-7-7-----7-x-5h7-----7-x-5h7-----7-x-------|
A---0-0-0-0-0-0-----0-x-0-0-----0-x-0-0-----0-x-------|
E-----------------------------------------------3~----|

Chorus (no phaser)

e---------------------------------------------------------|
B---------------------------------------------------------|
G---------------------------------------------------------|
D------5-6-7----------------------------------------------|
A--0---------0--3-4-5----------------3-------7--7--6--5---|
E------------------------0--3----4-5---5------------------|

e---------------------------------------------------------|
B---------------------------------------------------------|
G---------------------------------------------------------|
D------5-6-7----------------------------------------------|
A--0---------0--3-4-5----------------3-------7--7--5-6-7--|
E------------------------0--3----4-5---5------------------|


Solo
Just throw on a Digitech Whammy on 2 oct. up and some short delay. 

Raise the Whammy pedal during the + and down during the - and 
then slowly drop from raised to down on the +\\\.

      +-+---+-+---+-+---+-+-----+\\\--
e-------------------------------------|
B-------------------------------------|
G-----5-5-----------------------2-----|
D-----------7-7---5-5-----------2-----|
A-----------------------7-7-----0-----|
E-------------------------------------|



Bridge (with Phase 90)
Im sorry but i can't hear the little fills he does inbetween here.
                       x16
e----------------------|
B----------------------|
G----------------------|
D-------x-x-x-x--------|
A-------x-x-x-x--------|
E-0-----x-x-x-x--------|
Tap to rate this tab
 
# A B C D E F G H I J K L M N O P Q R S T U V W X Y Z