Song name
# A B C D E F G H I J K L M N O P Q R S T U V W X Y Z

Cypress Hill - Shut Em Down tab

I do not own any rights from this song, album, or artist.

If you have questions, feel free to write me an email,:masterart@gmx.de

This is my interpretition of Tom Morello's work with Cypress Hill from their latest 
album "Rise Up".

Intro clean; Chorus with distortion

E|------------------------------------------------------------------------|
b|------------------------------------------------------------------------|
G|--------5--2-------------------5--2-------------------------------------|
D|--------------5-2--------------------5-2--------------------------------|x2
A|------------------5-3--------------------5-3----------------------------|
E|--3--5----------------5--3--5----------------5--------------------------|

Verse with little gain/crunch

E|------------------------------------------------------------------------|
b|------------------------------------------------------------------------|
G|------------------------------------------------------------------------|
D|-2-2-2-2-2-5---2-2-2-2-2-5---2-2-2-2-2-5---2-2-2-2-2-5------------------|
A|-0-0-0-0-0-3---0-0-0-0-0-3---0-0-0-0-0-3---0-0-0-0-0-3------------------|
E|------------------------------------------------------------------------|

 |------------------------------------------------------------------------|
 |------------------------------------------------------------------------|
 |------------------------------------------------------------------------|
 |-5-5-5-5-5---5-5-5-5-5---4-4-4-4-4---7-7-7-7-7--------------------------|
 |-3-3-3-3-3---3-3-3-3-3---2-2-2-2-2---5-5-5-5-5--------------------------|
 |------------------------------------------------------------------------|
Tap to rate this tab
 
# A B C D E F G H I J K L M N O P Q R S T U V W X Y Z