Song name
# A B C D E F G H I J K L M N O P Q R S T U V W X Y Z

Cypress Hill - Last Laugh tab

Artist: Cypress Hill
Song: Last laugh
Album: Till death do us part

Here are the riffs of the song, really easy.
The bass is louder than the guitar so I'm not sure but I think there is some disto
like in the intro

Intro/verse:

e|---------------------------------------|
B|---------------------------------------|
G|---------------------------------------|
D|---------88-8/10-----------------------|
A|---------88-8/10-----------------------|
E|---------66-6/8------------------------|


Little break in riff:
e|-------------------------------------------|
B|-------------------------------------------|
G|-------------------------------------------|
D|----------8---1010--------6----1111--------|
A|----------8---1010--------6----1111--------|
E|----------6---8-8---------4----9-9---------|


This are "10" and "11", not "1-0" and "1-1"

I correct my tab cause I've said it was on standard tuning but I tab it for a F# tuning 
cause I play it on the F# string of a Drop B tuned guitar.
So this is the right way to play it on a standard tuning
Tap to rate this tab
 
# A B C D E F G H I J K L M N O P Q R S T U V W X Y Z