Song name
# A B C D E F G H I J K L M N O P Q R S T U V W X Y Z

Cypress Hill - Battle Of 2001 tab

Tabbed by: Rodrigo Antonino Pascual
e-mail: enigma_ch@hotmail.com



This song is from Soul Assasins album (chapter I) by Dj Muggs. 
B-real sings it.


Intro:
e||---------------||
B||---------------||
G|o---------------o|  Bass line
D|o---------4-----o|
A||--2----2-------||
E||------------2--||


Verse
e||---------2-----||
B||--3------3-----||
G|o--4------4-----o| With Bm chord
D|o---------4-----o|
A||--2----2-------||
E||------------2--||
Tap to rate this tab
# A B C D E F G H I J K L M N O P Q R S T U V W X Y Z