Song name
# A B C D E F G H I J K L M N O P Q R S T U V W X Y Z

Cypress Hill - Highlife tab

Cypress Hill
"Highlife"
"skull & bones" album
Tabbed by: Rodrigo Antonino Pascual
e-mail: enigma_ch@hotmail.com


I added another extra guitar for the minor chords that the piano makes.


Intro:
E||--------5---------5---------6---------6----|
B||------6---------6---------6---------6------|
G||--7-7-------7-7-------7-7-------7-7--------|
D||-------------------------------------------|
A||-------------------------------------------|
D||-------------------------------------------|

E||-----------10-------------10---------5---------5---||
B||--------10-------------10----------6---------6-----||
G||--10-10----------10-10---------7-7-------7-7-------||
D||---------------------------------------------------||
A||---------------------------------------------------||
D||---------------------------------------------------||


Bass line
E||----------------------------------------------||
B||----------------------------------------------||
G||----------------------------------------------||
D||----------------------------------------------||
A||----------------------------------------------||
D||--0--------5----5-7-8-7-8----5-7-5-2-0--------||



Acoustic guitars. 
     Dm         Gm              Dm
E||--5----5--------------------------||
B||--6------6---8----8----8-6-5------||
G||--7--------7-7----7----------7----|| Guitar 1 
D||--7----------5----5----------7----|| Dropped D
A||--5----------5----5----------5----||
D||--0----------5----5----------0----||
                                      |
     Dm         Gm              Dm    |
E||--1----------3----3----------1----||
B||--3----------3----3----------3----||
G||--2----------3----3----------2----|| Guitar 2
D||--0----------5----5----------0----|| Standard tuning
A||-------------5----5---------------||
E||-------------3----3---------------||
Tap to rate this tab
# A B C D E F G H I J K L M N O P Q R S T U V W X Y Z