Song name
# A B C D E F G H I J K L M N O P Q R S T U V W X Y Z

Cypress Hill - Real Estate tab

    [main riff]
G|--------|--------|
D|--------|--------|
A|797-2-2-|--------|
E|--------|--------|

    [after the verce the bass begins like this]
G|--------|--------|
D|--------|--------|
A|----2-2-|--------|
E|--------|--------|

    [interlude]
  var 1 
G|--------|--------|
D|--------|--------|
A|--------|--------|
E|0-2-----|--------|
  var 2
G|--------|--------|
D|--------|--------|
A|--------|--------|
E|0-2-----|----2--2|


      tabed by modigas:modigas_19@yahoo.com   
Tap to rate this tab
# A B C D E F G H I J K L M N O P Q R S T U V W X Y Z