Song name
# A B C D E F G H I J K L M N O P Q R S T U V W X Y Z

Czerwone Gitary - Historia Jednej Znajomoci tab

#----------------------------------PLEASE NOTE--------------------------------#
#This file is the author's own work and represents their interpretation of the#
#song. You may only use this file for private study, scholarship, or research.#
#-----------------------------------------------------------------------------#


transcription by: John1982@o2.pl (Grzegorz Bogacki)

You must tuning your guitar up a half step !


------------------------------------------------------------------------------|
-0-0-12----0-0--13p10------10------0-0--13-12-10------------------------------|
----------------------12-9-----------------------12-14-12-12-11-9-8-8-9-9-----|
------------------------------------------------------------------------------|
------------------------------------------------------------------------------|
------------------------------------------------------------------------------|


------------------------------------------------------------------------------|
--------12p13-12---------------12p13h12--------12-----------------------------|
----------------------------------------14-12---------------------------------|
-12-12------------------12-12-------------------------------------------------|
------------------------------------------------------------------------------|
------------------------------------------------------------------------------|


-------------------------------|--0-------------------------------------------|
--------12p13-12---13-15-13----|--0--------1----------------------------------|
-------------------------------|--0-------------------------------------------|
-12-12-------------------------|--2--------------1-2-1----2-------------------|
-------------------------------|--2-----3---------------2---------------------|
-------------------------------|----------------------------------------------|


If you have any questions or suggestions mail me ! - john1982@o2.pl
(This is my first tabb ;) )

Official website of this band: http://www.czerwonegitary.pl/
Tap to rate this tab
 
# A B C D E F G H I J K L M N O P Q R S T U V W X Y Z