Song name
# A B C D E F G H I J K L M N O P Q R S T U V W X Y Z

D At Sea - Forever Alone tab

D AT SEA
Forever Alone
Standard Tuning

* = harmonics


Intro/Verse
Guitar 1        x2                                                                  x4
-----------------|-------------------------------------------------------------------|
-----------------|-------------------------------------------------------------------|
---4---4---4---4-|---4---4---4---4---------------------------------------------------|
-5---5---5---5---|-5---5---5---5-----7---7---7---7---9---9---9---9---5---5---5---5---|
-----------------|-----------------5---5---5---5---7---7---7---7--\3---3---3---3-----|
-----------------|-------------------------------------------------------------------|
Intro/Verse
Guitar 2                                                                            x2
-----------------|--------------------------------12*--------------------------------|
---12*--------12*|-12*------------7*--------------------12*-------12*----------------|
------12*12*-----|-------12*-------------7*----------------12*----------12*----------|
-----------12*---|----------12*-------------7*-----------------------------12*-------|
-----------------|-------------------------------------------------------------------|
-----------------|-------------------------------------------------------------------|..
Guitar 2 continued                                                                  x2
-------------------------------------------------------------------------------------|
-----10-----------10-----------10-----------10---------------------------------------|
--12----12-11--12----12-12--12----12-12--12----12-12---------------------------------|
-------------------------------------------------------------------------------------|
-------------------------------------------------------------------------------------|
-------------------------------------------------------------------------------------|


Chorus - Guitar 1 (Or you can just play G)
--3-3-----3-3-3-3--3-3-----3-3-3-3------3-3-----3-3-3-3--3-3-----3-3-3-3-------------|
--3-3-3-3-3-3-3-3--3-3-3-3-3-3-3-3------3-3-3-3-3-3-3-3--3-3-3-3-3-3-3-3-------------|
--0-0-0-0-0-0-0-0--0-0-0-0-0-0-0-0------0-0-0-0-0-0-0-0--0-0-0-0-0-0-0-0-------------|
--2~~-0-0-0-0-0-0--0~~-0-0-0-0-0-0--2~~-0-0-0-0-0-0-0-0--0-0-0-0-0-0-0-0-------------|
---------------------------------------------------------3~~-------------------------|
-------------------------------------------------------------------------------------|
||
--3-3-----3-3-3-3--3-3-----3-3-3-3----3-3-----3-3-3-3--3-----------------------------|
--3-3-3-3-3-3-3-3--3-3-3-3-3-3-3-3----3-3-3-3-3-3-3-3--3-----------------------------|
--0-0-0-0-0-0-0-0--0-0-0-0-0-0-0-0----0-0-0-0-0-0-0-0--0-----------------------------|
--2~~-0-0-0-0-0-0--0~~-0-0-0-0-0-0----0-0-0-0-0-0-0-0--0-----------------------------|
-------------------------------------------------------3-----------------------------|
------------------------------------0~~----------------------------------------------|
then G        D           Em          C                                             x2
--3~--3~3~--3~2~--2~2~--2~0~--0~0~--0~0~--0~0~--0~-----------------------------------|
--3~--3~3~--3~3~--3~3~--3~0~--0~0~--0~1~--1~1~--1~-----------------------------------|
--0~--0~0~--0~2~--2~2~--2~0~--0~0~--0~0~--0~0~--0~-----------------------------------|
--0~--0~0~--0~0~--0~0~--0~2~--2~2~--2~2~--2~2~--2~-----------------------------------|
--2~--2~2~--2~------------2~--2~2~--2~3~--3~3~--3~-----------------------------------|
--3~--3~3~--3~------------0~--0~0~--0~-----------------------------------------------|

 
                                *REPEAT ALL OF THAT!!* 
(harmonics in verse are played once)


Bridge - Guitar 1
----------------------------------|---------------------------------------------------|
----------------------------------|---------------------------------------------------|
----4---4---4---4---4---4---4---4-|---------------------------------------------------|
--5---5---5---5---5---5---5---5---|--5~----------------------5~-----------------------|
----------------------------------|--------5~----7~----3~----------5~----7~----3~-----|
----------------------------------|---------------------------------------------------|


Claps + stomps


Last Chorus - Guitar 1
  G           D           Em          C                                             x4
--3~--3~3~--3~2~--2~2~--2~0~--0~0~--0~0~--0~0~--0~-----------------------------------|
--3~--3~3~--3~3~--3~3~--3~0~--0~0~--0~1~--1~1~--1~-----------------------------------|
--0~--0~0~--0~2~--2~2~--2~0~--0~0~--0~0~--0~0~--0~-----------------------------------|
--0~--0~0~--0~0~--0~0~--0~2~--2~2~--2~2~--2~2~--2~-----------------------------------|
--2~--2~2~--2~------------2~--2~2~--2~3~--3~3~--3~-----------------------------------|
--3~--3~3~--3~------------0~--0~0~--0~-----------------------------------------------|
Last Chorus - Guitar 2 (On second repeat only)
------------------------------------7--10-8---10-8--7-7------------------------------|
------------------------------------8--12-10--12-10-8-8------------------------------|
------------------------------------0---------------0-0------------------------------|
-------------------------------------------------------------------------------------|
-------------------------------------------------------------------------------------|
-------------------------------------------------------------------------------------|

Done. :P
Tap to rate this tab
# A B C D E F G H I J K L M N O P Q R S T U V W X Y Z