Song name
# A B C D E F G H I J K L M N O P Q R S T U V W X Y Z

D At Sea - Lover Liar tab

-------------------------------------------------------------------------------
                             Lover, Liar. - D at Sea
-------------------------------------------------------------------------------
Tabbed by: NeonLightSky
E-mail: neonlightsky@gmail.com

Tuning: Standard EADGBe

CAPO ON 1.

e|------------------------------------------------------------------------------|
B|------2---------2---------4---------4-----------------------------9---------9-|
G|------2---------2---------4---------4---------6---------6---------9---------9-|
D|----------------------------------------------6---------6---------------------|
A|----0------0--0---------2------2--2---------4------4--4------6--7------7--7---|
E|------------------------------------------------------------------------------|
Tap to rate this tab
# A B C D E F G H I J K L M N O P Q R S T U V W X Y Z