Song name
# A B C D E F G H I J K L M N O P Q R S T U V W X Y Z

D Masiv - Jangan Menyerah tab

I'm still learning, so comments and emails are always welcomed :-)


E|-------5-----3--------------------------------------------------------------|
B|--1/3-------0----0--5/6-5--------5-----3--5-----5-----0--3--------1--1----1-|
G|---------0----0---------------5-----5--------0-----0--------0---------------|
D|-------3-----5-------------5--------------------3--------5-----5--------2---|
A|------------------------0--------------------------------------------3------|
E|----------------------------------------------------------------------------|

E|-------5-----3------------------------------------------------------------0-|
B|--1/3-------0----0--5/6-5--------5-----3--5-----5-----0--3--------1--1----1-|
G|---------0----0---------------5-----5--------0-----0--------0---------------|
D|-------3-----5-------------5--------------------3--------5-----5--------2---|
A|------------------------0--------------------------------------------3------|
E|----------------------------------------------------------------------------|


That's all I know, hope that helped!!

Below is the official Website of d'masiv

http://www.masivers.org/
Tap to rate this tab
 
# A B C D E F G H I J K L M N O P Q R S T U V W X Y Z