Song name
# A B C D E F G H I J K L M N O P Q R S T U V W X Y Z

D Masiv - Jangan Menyerah tab

Dí Masiv - Jangan Menyerah

Intro :
        F        G       Am              F       G       C
E:|----------------1---0-------------0-0-------------------------------|
B:|-----10-----8---0---0-----1---1-2---------1-3---1---1-----1---1---1-|
G:|----------5-------0-----2---2-----------2-------0-0-----0---0---0---|
D:|--------7-----------------------------3-----------------------------|
A:|3S---8----------------0-------0-----------------------3-------------|
E:|--------------3-------------------------------3---------------------|
        F        G       Am              F       G       C
E:|----------------1---0-------------0-0-------------------------0-|
B:|-----10-----8---0---0-----1---1-2---------1-3---1---1-----1-----|
G:|----------5-------0-----2---2-----------2-------0-0-----0---0---|
D:|--------7-----------------------------3-------------------------|
A:|3S---8----------------0-------0-----------------------3---------|
E:|--------------3-------------------------------3-----------------|
Tap to rate this tab
 
# A B C D E F G H I J K L M N O P Q R S T U V W X Y Z