Song name
# A B C D E F G H I J K L M N O P Q R S T U V W X Y Z

D Masiv - Semakin tab

Song title     : Semakin
Artist         : D'Masiv



e|----10--10--10-9--9--9-----------------------10--10--10-9--9---------------------|
B|-----------------------10--10--10-9--9--9--------------------10-12--12--12-9--9--|
G|--9----------------------------------------9-------------------------------------|
D|---------------------------------------------------------------------------------|
A|---------------------------------------------------------------------------------|
E|---------------------------------------------------------------------------------|

e|----10--10--10-9--9-----12--12--12-10--10----10--10--10-9--9---------------------------|
B|---------------------10--------------------------------------10-12--12--12-9--9--------|
G|--9----------------------------------------9------------------------------------9-11\--|
D|---------------------------------------------------------------------------------------|
A|---------------------------------------------------------------------------------------|
E|---------------------------------------------------------------------------------------|

@beri aku waktu
e|--10-10-10-10-10-10-10-10---9-9-9-9-9-9-9-9---10-10-10-10-10-10-10-10-----------------|
B|--10-10-10-10-10-10-10-10---9-9-9-9-9-9-9-9---10-10-10-10-10-10-10-10--10/14---14\12--|
G|--11-11-11-11-11-11-11-11---9-9-9-9-9-9-9-9---11-11-11-11-11-11-11-11-----------------|
D|--------------------------------------------------------------------------------------|
A|--------------------------------------------------------------------------------------|
E|--------------------------------------------------------------------------------------|

e|------------17----17---------------17----17------------|
B|--17-17-17-----17----17--17-17-17-----17----17--17-17--|
G|-------------------------------------------------------|
D|-------------------------------------------------------|
A|-------------------------------------------------------|
E|-------------------------------------------------------|

@semakin
e|--10--10-10--9--------------------------9-10-12---10p9-----|
B|----------------10--9---------9-10-12------------------10--|
G|-----------------------9--10-------------------------------|
D|-----------------------------------------------------------|
A|-----------------------------------------------------------|
E|-----------------------------------------------------------|

@kau bintang dihatiku
e|-----10---10---------9---9---------12---12---------10---10-----|
B|---10-------10-----10-----10-----10-------10-----10-------10---|
G|--9-----------9---9---------9---9-----------9---9-----------9--|
D|---------------------------------------------------------------|
A|---------------------------------------------------------------|
E|---------------------------------------------------------------|

e|-----10---10---------9---9------------------|
B|---10-------10-----10-----10----9-9-9-------|
G|--9-----------9---9---------9-----------9---|
D|--------------------------------------------|
A|--------------------------------------------|
E|--------------------------------------------|

@solo
e|-----10---10---------10---10---------10---10---------10---10-----|
B|---10-------10-----10-------10-----10-------10-----10-------10---|
G|--9-----------9---9-----------9---9-----------9---9-----------9--|
D|-----------------------------------------------------------------|
A|-----------------------------------------------------------------|
E|-----------------------------------------------------------------|

e|-----12---12---------12---12---------12---12---------12---12-----|
B|---10-------10-----10-------10-----10-------10-----10-------10---|
G|--9-----------9---9-----------9---9-----------9---9-----------9--|
D|-----------------------------------------------------------------|
A|-----------------------------------------------------------------|
E|-----------------------------------------------------------------|

e|-----10---10---------10---10---------10---10---------10---10-----|
B|---10-------10-----10-------10-----10-------10-----10-------10---|
G|--9-----------9---9-----------9---9-----------9---9-----------9--|
D|-----------------------------------------------------------------|
A|-----------------------------------------------------------------|
E|-----------------------------------------------------------------|

e|-------------------------------------------------------|
B|----10---10-------9---9-------12---12-------10---10----|
G|---9-------9-----9-----9-----9-------9-----9-------9---|
D|--9---------9---9-------9---9---------9---9---------9--|
A|-------------------------------------------------------|
E|-------------------------------------------------------|

@yeoooo
e|-----------------------------------------------------9-9-9-9----------------------------|
B|--10-12-12-12-12-10-10-10-10-12-12-12-12-10-10-10-12---------12-12-12-12-10-10-9-9------|
G|-----------------------------------------------------------------------------------9-9--|
D|----------------------------------------------------------------------------------------|
A|----------------------------------------------------------------------------------------|
E|----------------------------------------------------------------------------------------|

e|-----------------------------------------------------9-9-9-9-------------------------------12--|
B|--10-12-12-12-12-10-10-10-10-12-12-12-12-10-10-10-12---------12-12-12-12-10-10-9-9--9-10-9-----|
G|-----------------------------------------------------------------------------------------------|
D|-----------------------------------------------------------------------------------------------|
A|-----------------------------------------------------------------------------------------------|
E|-----------------------------------------------------------------------------------------------|

@outro
e|--10------------------12-------9~---------------------------------12-------12--10--9------|
B|------------10-12b14-----12-10------12-10-9-10-9----------9-10-12----12~--------------12--|
G|-------9h11--------------------------------------9---9h10---------------------------------|
D|------------------------------------------------------------------------------------------|
A|------------------------------------------------------------------------------------------|
E|------------------------------------------------------------------------------------------|
Tap to rate this tab
 
# A B C D E F G H I J K L M N O P Q R S T U V W X Y Z