Song name
# A B C D E F G H I J K L M N O P Q R S T U V W X Y Z

D12 - Purple Pills tab

-----------------------------------|
-----------------------------------|
-----------------------------------|
-----------------------------------|
-0-0---0-2-3-2-0-----0-------------|
-----0-----------0-1---0-----------|

-----------------------------------|
-----------------------------------|
-----------------------------------|
-------------------3-3-2-----------|
-0-0---0-2-3-2-0-------------------|
-----0-----------0-----------------|

takeoutyourteeth@aim.com
Tap to rate this tab
 
# A B C D E F G H I J K L M N O P Q R S T U V W X Y Z