Song name
# A B C D E F G H I J K L M N O P Q R S T U V W X Y Z

D12 - Rap Game tab

-------------------------------------------
	Rap Game - D-12 ft, 50 Cent
-------------------------------------------
Tabbed By Zepher48
Email: mattkimball62@gmail.com

Standard Tuning

Intro
|--------------------------------------|
|--------------------------------------|
|5-3--------3-5-3----------------------|
|----5----5-------5--------------------|
|--------------------------------------|
|--------------------------------------|

Main Verse
|------33------------------------------|
|---------33----44-33------------------|
|---33-------55-------3-5--------------|
|55------------------------------------|
|--------------------------------------|
|--------------------------------------|
Tap to rate this tab
# A B C D E F G H I J K L M N O P Q R S T U V W X Y Z