Song name
# A B C D E F G H I J K L M N O P Q R S T U V W X Y Z

D12 - My Band tab

Hey i tabbed this out coz i was jus bored so enjoy

Band: D12

Song: My Band

Date: 24th September 2004

Time: 23:44


Any corrections tezzar_kkk_demons@hotmail.com


e---2--5--4--2--2--------------|
B-2------------2--3--2--3--0---|
G------------------------------|
D------------------------------|
A------------------------------|
E------------------------------|

e---2--5--4--2--2--------------|
B-2------------2--3--2--3--0---|
G------------------------------|
D------------------------------|
A------------------------------|
E------------------------------|


Repeat that sequence throughout the song
It sounds just like it

Enjoy

Thats it!!!
Tap to rate this tab
 
# A B C D E F G H I J K L M N O P Q R S T U V W X Y Z