Song name
# A B C D E F G H I J K L M N O P Q R S T U V W X Y Z

D4 - Come On tab

The D4 - Come On
Tabbed by Eren OGRUL
Listen for the correct timing!

00:11 - 00:22
e|-----------------------------------|
B|--10^------------------------12----|
G|--10^--10h9-7-------10^--14--------|
D|--------------9--------------------|
A|-----------------------------------|
E|-----------------------------------|

00:23 - 00:40
e|----------------------------------|
B|----------------------------------|
G|--4-4-4---------7-7-7--9-9-9------|
D|--4-4-4--7-7-7--7-7-7--9-9-9------|
A|--2-2-2--7-7-7--5-5-5--7-7-7------|
E|---------5-5-5--------------------|

00:41 - 00:46
e|-----------|
B|-----------|
G|--4----4---|
D|--4----4---|
A|--2----2---|
E|-----------|

00:47 - 00:52
e|----------------------------------------------|
B|--10^-10^-10^---------------------------------|
G|--10^-10^-10^-10-7---7-----7^----7^-9^-7------|
D|-------------------9---9-9---9-9--------------|
A|----------------------------------------------|
E|----------------------------------------------|

00:52 - 01:15
e|-----------------------------------|
B|-----------------------------------|
G|--4-4-4---------7-7-7--9-9-9-------|
D|--4-4-4--7-7-7--7-7-7--9-9-9-------|
A|--2-2-2--7-7-7--5-5-5--7-7-7-------|
E|---------5-5-5---------------------|

01:15 - 01:26
e|---------------------------------------|
B|---------------------------------------|
G|---------------------------------------|
D|---------------------------------------|
A|---------------------------------------|
E|--7--7--5--7--5--7--7--7--5--7--5--7---|

01:30 - 01:53
e|-----------------------------------|
B|----------------------------------|
G|--4-4-4---------7-7-7--9-9-9-------|
D|--4-4-4--7-7-7--7-7-7--9-9-9-------|
A|--2-2-2--7-7-7--5-5-5--7-7-7-------|
E|---------5-5-5---------------------|

01:54 - 02:05
e|----------------------------------------------------------------------|
B|----------------------------------------------------------------------|
G|----7---7--9--9^-9^-9^-9^-9--7--------7---7--9--9^-9^-9^-9^-9--7--7---|
D|--9---9------------------------9----9---9-----------------------------|
A|----------------------------------------------------------------------|
E|----------------------------------------------------------------------|

02:06 - 02:24
e|----------------------------------|
B|----------------------------------|
G|--4-4-4---------7-7-7--9-9-9------|
D|--4-4-4--7-7-7--7-7-7--9-9-9------|
A|--2-2-2--7-7-7--5-5-5--7-7-7------|
E|---------5-5-5--------------------|
Tap to rate this tab
# A B C D E F G H I J K L M N O P Q R S T U V W X Y Z