Song name
# A B C D E F G H I J K L M N O P Q R S T U V W X Y Z

D4 - Exit The City tab

http://www.thed4.co.nz/news.htm


This is off their first album 6Twenty, go buy it, its a wicked album. Plus its got the 
to exit to the city, party and get loose!

Anyway heres the tab, its pretty simple.

Intro:
e-----------------------------------------------|
a-2-3--2-0--1-3/5--2-3--2-3--2-3--2-3--2-3-3/5--|
d-----------------------------------------------|
g-----------------------------------------------|
b-----------------------------------------------|
E-----------------------------------------------|

Verse:
e-----------------------------------------------|
a-----------------------------------------------|
d--------7-----9--------------------------------| x8
g-9-7-9--7-7-7-9--------------------------------|
b-9-7-9--5-7-7-7--------------------------------|
E-7-5-7----5-5----------------------------------|

I dont know the rest, I have seen other tabs on other sites, but none are quite right.

If i figure the rest of it, ill be sure to put it on in one big tab for ya.
Tap to rate this tab
 
# A B C D E F G H I J K L M N O P Q R S T U V W X Y Z