Song name
# A B C D E F G H I J K L M N O P Q R S T U V W X Y Z

D4 - Invader Ace tab

-----------------------------------------------------------------------------
			     invader ace - the d4
-----------------------------------------------------------------------------
Tabbed by: steve
Email:     allchavsrgay@hotmail.com

Tuning:eadgbe

e|----------------------------------------------------------------------|
B|----------------------------------------------------------------------|
G|----------------------------------------------------------------------|
D|-5-5-5-5-5-8-8-8-8-8-10-10-12-10-8-8-10-8-----------------------------|
A|-5-5-5-5-5-8-8-8-8-8-10-10-12-10-8-8-10-8-----------------------------|
E|-3-3-3-3-3-6-6-6-6-6-8--8--10-8--6-6-8--6-----------------------------|

e|----------------------------------------------------------------------|
B|----------------------------------------------------------------------|
G|--------------------------------------8\------------------------------|
D|-5-3-0-3-5-5-5-3-0-3-5-5-5-3-0-3-5------------------------------------|
A|----------------------------------------------------------------------|
E|----------------------------------------------------------------------|
Tap to rate this tab
# A B C D E F G H I J K L M N O P Q R S T U V W X Y Z