Song name
# A B C D E F G H I J K L M N O P Q R S T U V W X Y Z

D4 - Trust Nobody tab

Trust Nobody off the newish D4 cd Out of my Head


Intro

e|------------------------------------------------------------------|
B|------------------------------------------------------------------|
G|-44444444-7-99-7-9-7--44444444-7-99-7-9~~-------------------------|
D|-44444444-7-99-7-9-7--44444444-7-99-7-9~~-------------------------|
A|-22222222-5-77-5-7-5--22222222-5-77-5-7~~-------------------------|
E|------------------------------------------------------------------|

Verse

e|------------------------------------------------------------------|
B|------------------------------------------------------------------|
G|-44444444-7-99-7-9-7--44444444-7-99-7-9-7-------------------------|
D|-44444444-7-99-7-9-7--44444444-7-99-7-9-7-------------------------|
A|-22222222-5-77-5-7-5--22222222-5-77-5-7-5-------------------------|
E|------------------------------------------------------------------|

Verse Lead (played inline with above tab)

e|------------------------------------------------------------------|
B|------------------------------------------------------------------|
G|------------99-7-9-7~~~----------99-7-9-7~~~----------------------|
D|------------------------------------------------------------------|
A|------------------------------------------------------------------|
E|------------------------------------------------------------------|

This is repeated lots.
Pretty basic huh. But the D4 are mostly riff based.

Support Kiwi music!

Email: pearljam1942@hotmail.com
Tap to rate this tab
# A B C D E F G H I J K L M N O P Q R S T U V W X Y Z