Guitaretab - guitar tabs
Song name
# A B C D E F G H I J K L M N O P Q R S T U V W X Y Z
Home / D / D4 / Little Baby tab

D4 - Little Baby tab

Gtr I (E A D G B E) - 'Little Baby'

  Gtr I

(intro)
[ Tab from: http://www.guitaretab.com/d/d4/67967.html ]
|------------------|------------------|
|------------------|------------------|
|------------------|------------------|
|-13-14-15--9-8-7--|-13-14-15--9-8-7--|
|-13-14-15--9-8-7--|-13-14-15--9-8-7--|
|-11-12-13--7-6-5--|-11-12-13--7-6-5--|

(Main riff)

|---------------------|---------------------|
|---------------------|---------------------|
|---------------------|---------------------|
|-13-14-15-15-9-8-7-7-|-13-14-15-15-9-8-7-7-|
|-13-14-15-15-9-8-7-7-|-13-14-15-15-9-8-7-7-|
|-11-12-13-13-7-6-5-5-|-11-12-13-13-7-6-5-5-|
Related for Little Baby tab
Advertisement will be closed in 10 seconds