Song name
# A B C D E F G H I J K L M N O P Q R S T U V W X Y Z

Daath - Wilting On The Vine tab

-------------------------------------------------------------------------------
			    Wilting on the Vine - Daath
-------------------------------------------------------------------------------


This is my first tab so I will probably need some advice on layout and stuff.
  
Tuning: Drop C

G1 is Emil Werstler
G2 is Eyal Levi

Verse
g1
    EEEEEEEE|EEEEEEEE|EEEEEEQ |EEEEEEEEE
D|----------|--------|--------|---------|
A|.---------|--------|--------|---------|
F|----------|--------|--------|---------|
c|.---------|--------|--------|88883333-|
G|----5-4-5-|8-5--458|5-5-4-5-|88883333-|
C|--00-0-0-0|-0-00---|-0-0-0--|88883333-|
    .. . . .  . ..     . . .

   EEEEEEEE|EEEEEEEE|EEEEEEQ |EEEEEEEEE
D|---------|--------|--------|---------|
A|---------|--------|--------|--------.|
F|---------|--------|--------|---------|
c|---------|--------|--------|88883333.| x2
G|---5-4-5-|8-5--548|5-5-4-5-|88883333-|
C|-00-0-0-0|-0-00---|-0-0-0--|88883333-|
   .. . . .  . ..     . . .

g2 comes in during the chords on last bar of
first time through
put heavy vibrato on quarter and whole notes
   E  E E  E  E  E E  Q Q Q Q W
D|--------------------------------|
A|-10-9-10-11-10-9-11-9-5-8-6-2b-.|
F|--------------------------------| x2
c|-------------------------------.|
G|--------------------------------|
C|--------------------------------|

g1
outro to verse 
  E E E E E E E E
D|-----------------| 
A|-----------------.|
F|------------------| 
C|-8-8-8-8-3-3-3-3-.| x2
G|-8-8-8-8-3-3-3-3--|
C|-8-8-8-8-3-3-3-3--|

   E  E  E  E  E E E E
D|----------------------| 
A|----------------------|
F|----------------------| 
C|-11-11-11-11-6-6-6-6--|
G|-11-11-11-11-6-6-6-6--|
C|-11-11-11-11-6-6-6-6--|

Chorus

   E  EEEEEEEEEEEEEEEEE  EEEEEEEE
D|--------------------------------|
A|.-------------------------------|
F|--------------------------------|
C|.----------------4-45-----------|
G|-----------5--6-----------------|
C|-12p0000000-00-00-0--6p0111111--|
     ...... .. .. .  . ........

1st & 3rd time
   EEEEEEEE
D|----------|
A|---------.|
F|----------|
C|---------.|
G|----------|
C|-44444444-|
   ........

2nd & 4th time
 tremelo these patterns
D|------------------|
A|-----------------.|
F|------------------|
C|-----------------.|
G|------------------|
C|-4444---4444---44-|
   ....   ....   ..


Bridge
all Even
second time round play open C5 instead of chord on 15th
D|---------------------------------|
A|-15 ----14 ----15 ----18 -------.|
F|-15 X13-14 X3--15 X8--18 X8------| X2
C|-12 ----11 ----12 ----15 -------.|
G|---------------------------------|
C|---------------------------------|

Play verse without g2 part

then chorus with the second time bar replaced with:
   EEQ  EEQ
D|-----------|
A|----------.|
F|-----------|
C|-545--545-.|
G|-545--545--|
C|-545--545--|

Fourth time bar is normal

Verse as normal


Weird break down
G1
   Q Q E E E Q E H
D|--------------------|
A|-------------------.|
F|--------------------| X4
C|-----9-------8-----.|
G|---9---9-9-----8----|
C|-9---------8--------|

g2 just plays the 4th string on the same frets


Arpeggios
G1
D|------------------------------------------|
A|-----------------------------------------.|
F|------------------------------------------|
C|-------------------11------12------------.|
G|-8-12-8-0-8-12-8-0----12-8----12-8/12\8---|
C|------------------------------------------|

G2
D|----------------------------------|
A|---------------------------------.|
F|----------------------------------|
C|-----------------7-----8---------.|
G|-5-8-5-0-5-8-5-0---8-5---8-5/8\5--|
C|----------------------------------|

Power chords both guitars (Bow down in the desert)
D|---------------------|
A|.--------------------|
F|---------------------|
C|.-2-3-6-5-3-2-1-3-2--|
G|--2-3-6-5-3-2-1-3-2--|
C|--2-3-6-5-3-2-1-3-2--|
 
 1st time
D|--------------------|
A|-------------------.|
F|--------------------| 
C|-2-3-7-6-3-2-1-3-2-.|
G|-2-3-7-6-3-2-1-3-2--|
C|-2-3-7-6-3-2-1-3-2--|

 2nd time
D|-----|-----------|
A|-----|.---------.|
F|-----|-----------| X7
C|-2-3-|.--7-6-3--.|
G|-2-3-|---7-6-3---|
C|-2-3-|---7-6-3---|

D|---------|
A|.-------.|
F|---------| X4
C|.-2-1-3-.|
G|--2-1-3--|
C|--2-1-3--|


Intro to solo
g2
D|---------------------------------|
A|---------------------------------|
F|---------------------------------|
C|---4-7-4---4-7-4---4-7-4---4-7-4-|
G|-5-------5-------5-------5-------|
C|-0-------------------------------|



Begins with Reinhaart bit

Solo

Back into Verse


Verse with break down

End with different version of Verse




************************************
| W = whole note, H = half, Q = Quarter,
| E = eighth, S = sixteenth
| /   slide up
| \   slide down
| h   hammer-on
| p   pull-off
| ~   vibrato
| +   harmonic
| x   Mute note
| b   Bend
| pb  Pre-bend
| br  Bend release
| pbr Pre-bend release
| brb Bend release bend

************************************
Tap to rate this tab
 
# A B C D E F G H I J K L M N O P Q R S T U V W X Y Z