Song name
# A B C D E F G H I J K L M N O P Q R S T U V W X Y Z

Daath - Incestuous Amplification tab

DTH
Incestuous Amplification (Solo)
The Concealers (2008)
Drop C (D G C F A D)


D|--10-13-10-9------10-13-10-9------10-13-10-9--|
A|-------------12-9------------12-9-------------| 
F|----------------------------------------------|   x2
C|----------------------------------------------| 
G|----------------------------------------------| 
C|----------------------------------------------|

D|--13-16-13-12-------13-16-13-12-------13-16-13-12--|
A|--------------15-12-------------15-12--------------| 
F|---------------------------------------------------|   x2
C|---------------------------------------------------| 
G|---------------------------------------------------| 
C|---------------------------------------------------|

D|--19-20-19-17-------19-20-19-17-------19-20-19-17--|
A|--------------18-17-------------18-17--------------| 
F|---------------------------------------------------|   x2
C|---------------------------------------------------| 
G|---------------------------------------------------| 
C|---------------------------------------------------|

D|--22-0-0-0-19-0-0-0-------------------19-0-0-0-16-0-0-0-------------------15^17~~~--|
A|--------------------21-0-0-0-18-0-0-0-------------------18-0-0-0-15-0-0-0-----------| 
F|------------------------------------------------------------------------------------|
C|------------------------------------------------------------------------------------| 
G|------------------------------------------------------------------------------------| 
C|------------------------------------------------------------------------------------|
Tap to rate this tab
 
# A B C D E F G H I J K L M N O P Q R S T U V W X Y Z