Song name
# A B C D E F G H I J K L M N O P Q R S T U V W X Y Z

Daath - Placenta tab

Daath - Placenta

Tuning (C-G-C-F-A-D)

Intro-

D|--------------------------|
A|--------------------------|
F|----------7---7----7-7-8--|
C|-6-7-6--0---0---0---------|
G|-6-7-6--0-5-0-5-0--5-5-6--|
C|-6-7-6--0---0---0---------|
                                           X2

then

D|----------------------------------|
A|----------------------------------|
F|----------------------------------|
C|-0-1-2-3-2-3-4-5-3-4-5-6-4-5-6-7--|
G|-0-1-2-3-2-3-4-5-3-4-5-6-4-5-6-7--|
C|-0-1-2-3-2-3-4-5-3-4-5-6-4-5-6-7--|
                                            X3
(But on the 3rd one, stop at 5 and play the intro riff again)

Then Bridge
This part is sorta hard

D|---------------------------|
A|---------------------------|
F|-------7--------8----------|
C|-0-2-3----0-2-3---0-2-3--5-|
G|-0-2-3-5--0-2-3-6-0-2-3--5-|
C|-0-2-3----0-2-3---0-2-3--5-|
                                            x3 (but on 3rd time, stop at 3 and then

C|-3-3-2-1-|
G|-3-3-2-1-|
C|-3-3-2-1-|

Then Riff After Intro

D|-----------------------------------|
A|-----------------------------------|
F|-----------------------------------|
C|-0-1-2-3-2-3-4-5-3-4-5-6-4-5-6-7---|
G|-0-1-2-3-2-3-4-5-3-4-5-6-4-5-6-7---|
C|-0-1-2-3-2-3-4-5-3-4-5-6-4-5-6-7---|

Add in the tremelo Chugs in between as needed (Use your ears!)

Repeat Intro Again, then the riff after it, and your done!

if you have any questions, message me at
Crazyone252@yahoo.com
Tap to rate this tab
# A B C D E F G H I J K L M N O P Q R S T U V W X Y Z