Song name
# A B C D E F G H I J K L M N O P Q R S T U V W X Y Z

Dacav5 - Tetris tab

I heard this song and copied it by ear.Now its yours.
                     Dacav5
               1st part
E----------------------------------------------------|
B----------------------------------------------------|
G--11-9----9--------------11-----------9--11---------|
D-------12---12-11-9-9-12----12-11--12-------12--9-9-|
A----------------------------------------------------|
E----------------------------------------------------|

               2nd part
E-----------------------------------------------------|
B------12-10------------------------------------------|
G-9-12-------12-11----11-----------9--11--------------|
D------------------12----12-11--12-------12--9-9------|
A-----------------------------------------------------|
E-----------------------------------------------------|

Thats it plays over and over that song.
Tap to rate this tab
# A B C D E F G H I J K L M N O P Q R S T U V W X Y Z