Song name
# A B C D E F G H I J K L M N O P Q R S T U V W X Y Z

D:a:d - Eye Of The Tiger tab

D.A.D - Eye Of The Tiger
Oystein & Sveis
(dad_crew@hotmail.com)


Intro - play this twice

e|----------------------------------------|
B|----------------------------------------|
G|----------------------------------------|
D|-9-----9-7-9-----9-7-9-----9-7-5--5-5-5-|
A|-9-----9-7-9-----9-7-9-----9-7-5--5-5-5-|
E|-7-----7-5-7-----7-5-7-----7-5-3--3-3-3-|

Riff 1 - play this twice

e|---------------------------------------------------------------|
B|---------------------------------------------------------------|
G|---------------------------------------------------------------|
D|-9-9-9-9-9-9--9-7-9--9-9-9-9-9--9-7-9--9-9-9-9-9--9-7-5--5-5-5-|
A|-9-9-9-9-9-9--9-7-9--9-9-9-9-9--9-7-9--9-9-9-9-9--9-7-5--5-5-5-|
E|-7-7-7-7-7-7--7-5-7--7-7-7-7-7--7-5-7--7-7-7-7-7--7-5-3--5-5-5-|

Verse 1 - play this twice

e|-----------------|-----------------|-----------------|-----------------|
B|-----------------|-----------------|-----------------|-----------------|
G|-----------------|-----------------|-----------------|-----------------|
D|-9-9-9-9-9-9-9-9-|-5-5-5-5-5-5-5-5-|-7-7-7-7-7-7-7-7-|-4-4-4-4-4-4-4-4-|
A|-9-9-9-9-9-9-9-9-|-5-5-5-5-5-5-5-5-|-7-7-7-7-7-7-7-7-|-4-4-4-4-4-4-4-4-|
E|-7-7-7-7-7-7-7-7-|-3-3-3-3-3-3-3-3-|-5-5-5-5-5-5-5-5-|-2-2-2-2-2-2-2-2-|

Riff 2 - play this four times

e|---------------------------------------------------------------|
B|---------------------------------------------------------------|
G|---------------------------------------------------------------|
D|-9-9-9-9-9-9--9-7-9--9-9-9-9-9--9-7-9--9-9-9-9-9--9-7-5--5-5-5-|
A|-9-9-9-9-9-9--9-7-9--9-9-9-9-9--9-7-9--9-9-9-9-9--9-7-5--5-5-5-|
E|-7-7-7-7-7-7--7-5-7--7-7-7-7-7--7-5-7--7-7-7-7-7--7-5-3--5-5-5-|

Verse 2 - play this twice

e|-----------------|-----------------|-----------------|-----------------|
B|-----------------|-----------------|-----------------|-----------------|
G|-----------------|-----------------|-----------------|-----------------|
D|-9-9-9-9-9-9-9-9-|-5-5-5-5-5-5-5-5-|-7-7-7-7-7-7-7-7-|-4-4-4-4-4-4-4-4-|
A|-9-9-9-9-9-9-9-9-|-5-5-5-5-5-5-5-5-|-7-7-7-7-7-7-7-7-|-4-4-4-4-4-4-4-4-|
E|-7-7-7-7-7-7-7-7-|-3-3-3-3-3-3-3-3-|-5-5-5-5-5-5-5-5-|-2-2-2-2-2-2-2-2-|

Outro - play this twice

e|---------------------------------------------|
B|---------------------------------------------|
G|---------------------------------------------|
D|-9-----9-7-9-----9-7-9-----9-7-5--5-5-5-----9|
A|-9-----9-7-9-----9-7-9-----9-7-5--5-5-5-----9|
E|-7-----7-5-7-----7-5-7-----7-5-3--3-3-3-----7|

Play & enjoy!
Tap to rate this tab
# A B C D E F G H I J K L M N O P Q R S T U V W X Y Z