Song name
# A B C D E F G H I J K L M N O P Q R S T U V W X Y Z

D:a:d - Monster Philosophy tab

D:A:D
Title: Monster Philosophy
Album: Monster Philosophy (2008)

Intro:

  B
E------------------------------|
B------------------------------|
G-------------8----------------|
D------9--7-9--9--9-7-9-7-9----| X 4
A------------------------------|
E--7-7-------------------------|

Vers:

E------------------------------------------------|
B------------------------------------------------|
G------------------------------------------------|
D------------------------------------------------| X 4
A--------6---------------------7-----------------|
E--7--5-7--7--7-5-7-5-7--7-5-7---7--7-5-7-5-7----|

Pre-chorus:

E---------------------|
B---------------------|
G----10--9--7-9-------|
D----10--9--7-9-------| X 4
A----8---7--5-7-------|
E--0------------------|

Chorus: See intro

Listen to the song and you'll get it ;)
Tap to rate this tab
# A B C D E F G H I J K L M N O P Q R S T U V W X Y Z