D:a:d - Too Deep For Me tab

My first tab. 

Intro
E---------------------------------------------------------|
B---------------------------------------------------------|
G--------10--10------5--5------9--9-----4--4--------------|
D---------------------------------------------------------| X1
A---------------------------------------------------------|
E---5/10---10---10/5---5---5/8---8--8/3---3---------------|

Verse
E---------------------------------------------------------|
B---------------------------------------------------------|
G--------10--10------5--5------9--9-----4--4--------------|
D---------------------------------------------------------| X4
A---------------------------------------------------------|
E---5/10---10---10/5---5---5/8---8--8/3---3---------------|
Yeah there's a difference....

Bridge
E---------------------------------------------------------|
B---------------------------------------------------------|
G-----2---2-----5---5-----10---10---10-12-12-12/10--------|
D---------------------------------------------------------| X2
A---------------------------------------------------------|
E---1---1---1/5---5---5/10---10-------------------10------|
They call you famous...

Verse
E---------------------------------------------------------|
B---------------------------------------------------------|
G--------10--10------5--5------9--9-----4--4--------------|
D---------------------------------------------------------| X4
A---------------------------------------------------------|
E---5/10---10---10/5---5---5/8---8--8/3---3---------------|
A lot of confusion...

Bridge
E---------------------------------------------------------|
B---------------------------------------------------------|
G-----2---2-----5---5-----10---10---10-12-12-12/10--------|
D---------------------------------------------------------| X2
A---------------------------------------------------------|
E---1---1---1/5---5---5/10---10-------------------10------|
I have lived too long...

(This part i cant figure out:

 "And all we ever wanted
 Was put into silent stone")

E---------------------------------------------------------|
B---------------------------------------------------------|
G-----2---2-----5---5-----10---10---10-12-12-12/10--------|
D---------------------------------------------------------| X2
A---------------------------------------------------------|
E---1---1---1/5---5---5/10---10-------------------10------|
It's too deep for me...

Solo

E---------------------------------------------------------|
B---------------------------------------------------------|
G---10-h12-10-9-9---9-h10-9-7-7--7-9-10-10-h12-10-12-9---12|
D---------------------------------------------------------|
A---------------------------------------------------------|
E---------------------------------------------------------|

E---------------------------------------------------------|
B---------------------------------------------------------|
G---h14-12-10-10/12---12h14-10h12-9h10-7h9-10-9---12h14-10h12|
D---------------------------------------------------------|
A---------------------------------------------------------|
E---------------------------------------------------------|

E---------------------------------------------------------|
B---------------------------------------------------------|
G---9h10-7/9-7---7-9-10-10-10h12-10-9-p10-12h14-12-10-10/12|
D---------------------------------------------------------|
A---------------------------------------------------------|
E---------------------------------------------------------|

E---------------------------------------------------------|
B---------------------------------------------------------|
G-----2---2-----5---5-----10---10---10-12-12-12/10--------|
D---------------------------------------------------------| X2
A---------------------------------------------------------|
E---1---1---1/5---5---5/10---10-------------------10------|
They call you famous...

(This part i cant figure out:

 "And all we ever wanted
 Was put into silent stone")


E---------------------------------------------------------|
B---------------------------------------------------------|
G-----2---2-----5---5-----10---10---10-12-12-12/10--------|
D---------------------------------------------------------| X4
A---------------------------------------------------------|
E---1---1---1/5---5---5/10---10-------------------10------|
It's too deep for me...

Outro
E---------------------------------------------------------|
B---------------------------------------------------------|
G-----2---2-----5---5-----10---10---10-12-12-12/10--------|
D---------------------------------------------------------| X4
A---------------------------------------------------------|
E---1---1---1/5---5---5/10---10-------------------10------|
It's too deep... for me... to cross... alone


By Thomas

Enjoy
Tap to rate this tab
 
# A B C D E F G H I J K L M N O P Q R S T U V W X Y Z