D:a:d - Sleeping My Day Away chords

Highlighted       Show chord diagrams
(Start the song like this: Bb Bb Bb Bb)

Intro:





Bb Bb Gb Ab

E|-------------------------|-----------------|
B|-------------------------|-----------------|
G|-------------------------|-----------------|
D|-------3---------3------3|-----------------|
A|-------------------------|-------4--------4|
E|---4-h6------4-h6---4-h6-|---4-h6------4-6-|*2



Bb Bb Gb Eb

E|-------------------------|---------------|
B|-------------------------|---------------|
G|-----------------3-------|---------------|
D|-------3----------------3|-------4---3^--|
A|-------------------------|--------------6|
E|---4-h6------4-h6---4-h6-|---4-h6--------|



Bb Bb Gb Eb

E|-------------------------|------------------|
B|-------------------------|------------------|
G|-------------------------|------------------|
D|-------3---------3------3|------------------|
A|-------------------------|-------4---4-h6-6^|
E|---4-h6------4-h6---4-h6-|---4-h6-----------|



This is how you shall play the chords:



Verse #1:



Bb C

Mumbling goodmorning & raising my head

Db Ab

A bad breath kiss to my pillow pet

Db Eb Bb

I take a look at the day turns & stay in bed

Bb C

Open my eyes when the day have died

Db Ab

I turned the world and I slept alright

Db Eb

Now my daymare is over I zip my jeans tight

Eb

Oh lord won't you bless this night





The chords in the chorus are played like the intro.



The second verse is played like the first one.





Okay, here we got the solo/midplay! This is for the guitarist who's

prepared to do a little extra job! It goes like:



E|------------------------------------------------|--------------------------|
B|------------------------------------------------|--------------------------|
G|------------------------------------------------|--------------------------|
D|------------------------------------------------|----8-h10-10^-8-s6-4----4-|
A|----------6-s8-8-8-s6-6-6-s4-4-4-p3-h4-4-s6-s8-8|---8-------------------6-6|
E|---6--------------------------------------------|--------------------------|

(Rhythmguitar goes on)

Bb Bb Gb F Eb Bb Gb F Eb

E|----------------------------|--------------------|------------------------|
B|----------------------------|--------------------|------------------------|
G|----------------------------|-------------8-s4-s6|------------------------|
D|---6------------------------|-------8------------|--------10-h11----11-13^|
A|-----8---8----8----8-9-p8-s6|---6-8^-8^----------|---8-h9-------8-h9------|
E|----------8^-6-8^-6---------|--------------------|------------------------|

Eb

E|------------------|
B|------------10-h11|
G|----8-10-11-------|
D|---8-8--8--8------|
A|------------------|
E|------------------|



Right after that you play this riff:



E|----------------|-------------|
B|----------------|-----7-7-p6-4|
G|---6-6-3---6-6-3|---6-6-6----3|
D|---6-6-3---6-6-3|---6---------|
A|----------------|-------------|
E|----------------|-------------|*2



Here's the final chorus. Play that as the others. But at the end of

that (it is a bit longer than the others) you play:



Bb Gb

'Coz the devil's at work inside my brain

Eb Gb

I'm sleeping my day away I'm sleeping my day away

Eb Gb Gb

I'm sleeping my day away I'm sleeping my day away away...




Then finish it off with a Bb.
Tap to rate this tab
 
# A B C D E F G H I J K L M N O P Q R S T U V W X Y Z