Song name
# A B C D E F G H I J K L M N O P Q R S T U V W X Y Z

Dad - Revolution tab

D-A-D

Revolution

Tuning: normal E-tuning E-A-D-G-B-e

/+\ = Slide
h = Hammer-on
p = Pull-off
b = Bend

Intro:

|------------------------|
|----------------8-6-----|
|5-7-8--8-7----8-----7/--|
|-----------5------------|
|------------------------|
|------------------------|

|------------------------|
|----------------8-6-----|
|5-7-8--8-7----8-----7---|
|-----------5------------|
|------------------------|
|------------------------|

|-----------------------------|
|-----------------------------|
|-----------------------------|
|-----------------------------| x4
|10-10-------10-10--------7-7-|
|8--8--11-10-8--8--11-10--5-5-|

Verse:

|-----------------------------|
|-----------------------------|
|-----------------------------|
|-----------------------------| x8
|10-10-------10-10--------7-7-|
|8--8--11-10-8--8--11-10--5-5-|

Chorus:

|----------------------------------------------------|
|----------------------------------------------------|
|5-5-5-5-5-5---------------8-8-8-8-8-8-3-3-3-3-3-3-3-|
|5-5-5-5-5-5-5-5-5-5-5-5-5-8-8-8-8-8-8-3-3-3-3-3-3-3-| x2
|3-3-3-3-3-3-5-5-5-5-5-5-5-6-6-6-6-6-6-1-1-1-1-1-1-1-|
|------------3-3-3-3-3-3-3---------------------------|

|-----------------------------|
|-----------------------------|
|-----------------------------|
|-----------------------------|
|10-10-------10-10--------7-7-|
|8--8--11-10-8--8--11-10--5-5-|

Verse:

|-----------------------------|
|-----------------------------|
|-----------------------------|
|-----------------------------| x3
|10-10-------10-10--------7-7-|
|8--8--11-10-8--8--11-10--5-5-|

|-------------------------------|
|-------------------------------|
|-------------------------------|
|-------------------------------|
|10-10-------10-10--------7-7-7-|
|8--8--11-10-8--8--11-10--5-5-5-|

|-----------------------------|
|-----------------------------|
|-----------------------------|
|-----------------------------| x4
|10-10-------10-10--------7-7-|
|8--8--11-10-8--8--11-10--5-5-|

Chorus:

|----------------------------------------------------|
|----------------------------------------------------|
|5-5-5-5-5-5---------------8-8-8-8-8-8-3-3-3-3-3-3-3-|
|5-5-5-5-5-5-5-5-5-5-5-5-5-8-8-8-8-8-8-3-3-3-3-3-3-3-| x4
|3-3-3-3-3-3-5-5-5-5-5-5-5-6-6-6-6-6-6-1-1-1-1-1-1-1-|
|------------3-3-3-3-3-3-3---------------------------|

Interlude:

|---------------------------|
|---------------------------|
|---------------------------|
|---------------------------|
|10-10-------10-10--------7-|
|8--8--11-10-8--8--11-10--5-|

|-------------------------------|
|-------------------------------|
|-------------------------------|
|-------------------------------|
|10-10-------10-10--------7-7-7-|
|8--8--11-10-8--8--11-10--5-5-5-|

|----------------------------------|
|----------------------------------|
|----------------------------------|
|----------------------------------|
|10-10-------10-10--------7-7-7-7-7|
|8--8--11-10-8--8--11-10--5-5-5-5-5|

Solo:

|-------------------------------------------------|
|-------------------------------------------------|
|5p0-8p0-5p0-8p0-3/5\3p0-5p0-8p0-5p0-8p0-8/10\8p0-|
|-------------------------------------------------|
|-------------------------------------------------|
|-------------------------------------------------|

|--------------------------------------------------|
|--------------------------------------------------|
|5p0-8p0-3p0-3p0-3h4h5p0-5p0-8p0-7h8p0-5p0-7p0-7/3-|
|--------------------------------------------------|
|--------------------------------------------------|
|--------------------------------------------------|

|------------------------------------------------------|
|------------------------------------------------------|
|5p0-8p0-5p0-5p0-8/10\8p0-5p0-8p0-10p0-10p0-10h11h12p0-|
|------------------------------------------------------|
|------------------------------------------------------|
|------------------------------------------------------|

|--------------------------------------------------------------|
|--------------------------------------------------------------|
|5p0-8p0-10p0-10p0-12p11p10p0-8p0-10p0-12p0-11h12p10p0-8p0-8p7-|
|--------------------------------------------------------------|
|--------------------------------------------------------------|
|--------------------------------------------------------------|

|----------------------------------------|
|----------------------------------------|
|5-7b8-5-7b8-5h7-5h7-5-7b8-5-7b8-5h7-5h7-|
|----------------------------------------|
|----------------------------------------|
|----------------------------------------|

|------------------------------|
|4-6b8-4-6b8-4h6-4h6-4-6p4-6b9-|
|------------------------------|
|------------------------------|
|------------------------------|
|------------------------------|

Chorus:

|----------------------------------------------------|
|----------------------------------------------------|
|5-5-5-5-5-5---------------8-8-8-8-8-8-3-3-3-3-3-3-3-|
|5-5-5-5-5-5-5-5-5-5-5-5-5-8-8-8-8-8-8-3-3-3-3-3-3-3-| x4
|3-3-3-3-3-3-5-5-5-5-5-5-5-6-6-6-6-6-6-1-1-1-1-1-1-1-|
|------------3-3-3-3-3-3-3---------------------------|

|-----------------------------|
|-----------------------------|
|-----------------------------|
|-----------------------------|
|10-10-------10-10--------7-7-|
|8--8--11-10-8--8--11-10--5-5-|
Tap to rate this tab
# A B C D E F G H I J K L M N O P Q R S T U V W X Y Z