Song name
# A B C D E F G H I J K L M N O P Q R S T U V W X Y Z

D:a:d - Reconstrucdead tab

ReconstrucDEAD - Helpyourselfish

The Intro (Arranged for one guitar):

E||--------------------------|--------------------------|
B||--------------------------|--------------------------|
G||--------------------------|--------------------------|
D||--------------------------|--------------------------|
A||--0h-2--2--2--2--2--2--2--|--2--2--2--2--3--3--3--3--|
E||--------------------------|--------------------------|


               H. H.    H.    The H. stands for: "Natural Harmonic"
|--------------------------|--------------------------|
|--------------------------|--------------------------|
|--------------4--4-----4--|--------------------------|
|--------------------------|--------------------------|
|--0h-2--2--2--------2-----|--2--2--2--2--3--3--3--3--|
|--------------------------|--------------------------|


               H. H.    H
|--------------------------|--------------------------|
|--------------------------|--------------------------|
|--------------4--4-----4--|--------------------------|
|--------------------------|--------------------0-----|
|--0h-2--2--2--------2-----|--2--2--2--2--3--3-----0--|
|--------------------------|--------------------------|


               H. H.    H.
|--------------------------|--------------------------|
|--------------------------|--------------------------|
|--------------4--4-----4--|--------------------------|
|--------------------------|--------------------------|
|--0h-2--2--2--------2-----|--2--2--2--2--3--3--3--3--|
|--------------------------|--------------------------|

                                             At this point, the rest
                                             of the band enters.
               H. H.    H.                   G5
|--------------------------|------------------------|
|--------------------------|------------------------|
|--------------4--4-----4--|------------------------|
|--------------------------|-----------------5------|
|--0h-2--2--2--------2-----|--2--2--2--2--2--5------|
|--------------------------|-----------------3------|

Riff T.:
   F#5              D5
|----------------------|------------------------|
|----------------------|------------------------|
|-------------------7--|----7--7--7--7--7--7----|
|--4--------4----4--7--|----7--7--7--7--7--7----|
|--4--------4----4--5--|----5--5--5--5--5--5----|
|--2--------2----2-----|------------------------|


   E5               Bb5                 G5
|----------------------|-----------------------|
|----------------------|-----------------------|
|-------------------3--|----3--3--3--3---------|
|--2--------2----2--3--|----3--3--3--3--5------|
|--2--------2----2--1--|----1--1--1--1--5------|
|--0--------0----0-----|----------------3------|


   F#5              D5
|----------------------|------------------------|
|----------------------|------------------------|
|-------------------7--|----7--7--7--7--7--7----|
|--4--------4----4--7--|----7--7--7--7--7--7----|
|--4--------4----4--5--|----5--5--5--5--5--5----|
|--2--------2----2-----|------------------------|


   E6                  Bb5                 G5
|-------------------------|-----------------------|
|-------------------------|-----------------------|
|-------------------------|-----------------------|
|--11--------11----11--8--|----8--8--8--8--5------|
|--x---------x-----x---8--|----8--8--8--8--5------|
|--0---------0-----0---6--|----6--6--6--6--3------|


   F#5              D5
|----------------------|------------------------|
|----------------------|------------------------|
|-------------------7--|----7--7--7--7--7--7----|
|--4--------4----4--7--|----7--7--7--7--7--7----|
|--4--------4----4--5--|----5--5--5--5--5--5----|
|--2--------2----2-----|------------------------|


   E5               Bb5                 G5
|----------------------|-----------------------|
|----------------------|-----------------------|
|-------------------3--|----3--3--3--3---------|
|--2--------2----2--3--|----3--3--3--3--5------|
|--2--------2----2--1--|----1--1--1--1--5------|
|--0--------0----0-----|----------------3------|


   F#5              D5
|----------------------|------------------------|
|----------------------|------------------------|
|-------------------7--|----7--7--7--7--7--7----|
|--4--------4----4--7--|----7--7--7--7--7--7----|
|--4--------4----4--5--|----5--5--5--5--5--5----|
|--2--------2----2-----|------------------------|


   E6                                                 Riff T. end
|--------------------------------|------------------------------||
|--------------------------------|------------------------------||
|--------------------------------|------------------------------||
|--11--11--11--11--11----11--11--|----11--11--11--11--11--11----||
|--x---x---x---x---x-----x---x---|----x---x---x---x---x---x-----||
|--0---0---0---0---0-----0---0---|----0---0---0---0---0---0-----||


Verse, almost like the Intro:

Play this twice
               H. H.    H.
||-------------------------|--------------------------|
||-------------------------|--------------------------|
||*------------4--4-----4--|--------------------------|
||*------------------------|--------------------------|
||-0h-2--2--2--------2-----|--2--2--2--2--3--3--3--3--|
||-------------------------|--------------------------|
         When the fever...


               H. H.    H    1st time only
|--------------------------|-------------------------||
|--------------------------|-------------------------||
|--------------4--4-----4--|------------------------*||
|--------------------------|--------------------0---*||
|--0h-2--2--2--------2-----|--2--2--2--2--3--3-----0-||
|--------------------------|-------------------------||


2nd time only
|--------------------------|
|--------------------------|
|--------------------------|
|--------------------------|
|--2--2--2--2--2--0--0--0--|
|--------------------------|


Bridge:
           B5                         B5          B5
||---------------------------|---------------------------||
||---------------------------|---------------------------||
||*--------4--4--4--4--4--4--|--------4--4--------4--4--*||
||*--------4--4--4--4--4--4--|--------4--4--------4--4--*||
||---0h-2--2--2--2--2--2--2--|--0h-2--2--2--0h-2--2--2---||
||---------------------------|---------------------------||
                Ride the...

         B5                         B5       G5
|--------------------------|------------------------||
|--------------------------|------------------------||
|--------4--4--4--4--4--4--|--------4--4--4---------||
|--------4--4--4--4--4--4--|--------4--4--4--5------||
|--0h-2--2--2--2--2--2--2--|--0h-2--2--2--2--5------||
|--------------------------|-----------------3------||

Refrain:
Play Riff T.

2nd Verse

Bridge

2nd Refrain

3rd Bridge.
      P.M........        P.M.................
      F#5        E5      F#5                 E5
E||-------------------------|--------------------------||
B||-------------------------|--------------------------||
G||*------------------------|-------------------------*||
D||*------------------------|-------------------------*||
A||---4--4----4--2----2--4--|----4--4--4--4--2--2--2---||
E||---2--2----2--0----0--2--|----2--2--2--2--0--0--0---||

Solo
First play this:
(this isn't right 'cause I'm used to play the solo, therefore
I can't remember this part for the rythm guitar!)
    G5                  G5         G5      G5       3x
||--------------------------|------------------------||
||--------------------------|------------------------||
||*-------------------------|-----------------------*||
||*-------------------------|-----------------------*||
||---5--5--5--5--5-------5--|-------5-------5--------||
||---3--3--3--3--3--0----3--|--0----3--0----3--0-----||

The play this:
(almost the same as the bridge)

           B5                         B5          B5    3x
||---------------------------|---------------------------||
||---------------------------|---------------------------||
||*--------4--4--4--4--4--4--|--------4--4--------4--4--*||
||*--------4--4--4--4--4--4--|--------4--4--------4--4--*||
||---0h-2--2--2--2--2--2--2--|--0h-2--2--2--0h-2--2--2---||
||---------------------------|---------------------------||

Long quiet part with a nice bass line, and some lovely feedback sounds.

Bass:
A||--------------------|--------------------|
E||--2--------0--------|--2--------0--------|

|--------------------|--------------------|
|--2--------0--------|--2--------0--------|

      My eyes are...

|--------------------|-----------1--------|
|--2--------0--------|--2-----------------|


|-----------5--------|-----------1--------|
|--2-----------------|--0-----------------|

		    The Guitar returns
                       E5
--------------------|--------------------------|
--------------------|--------------------------|
--------------------|--9--9--9--9--9--9--9--9--|
--------------------|--9--9--9--9--9--9--9--9--|
-----------5--------|--7--7--7--7--7--7--7--7--|
--2-----------------|--------------------------|

--------------------------||
--------------------------||
--9--9--9--9--9--9--9--9--||
--9--9--9--9--9--9--9--9--||
--7--7--7--7--7--7--7--7--||
--------------------------||


Powerbridge:
Just play the first half of Riff T. That should work.

Last Refrain
Play Riff T. a couple of times but beware!: The second time
you play the Bb5 you're supposed to play it for two bars
instead of just one. If you don't you'll be one bar in front
of the rest of the band (or your CD). End the song on a E5.
Tap to rate this tab
# A B C D E F G H I J K L M N O P Q R S T U V W X Y Z