Song name
# A B C D E F G H I J K L M N O P Q R S T U V W X Y Z

D:a:d - Road Below Me tab

This is a very good song by d-a-d
easy to play.

Everything Glows:

The Road Below Me.

Intro:
E|----------------------------------|
B|----------------------------------|
G|-7-7-5h7h5------------------------|
D|-----------7-7-3-3-3-5-5-3h5h3----|
A|-------------------------------5~~|
E|----------------------------------|


E|----------------------------------|
B|----------------------------------|
G|-7-7-5h7h5------------------------|
D|-----------7-7-3-3-3-5-5-3h5-3-3--|
A|----------------------------------|
E|----------------------------------|


Intro 2/verse:

D5-F5-Eb5-Bb5-


Chorus:

G5-C5-A5-(A5-G5-E5)

play (A5-G5-E5) like this:

e:-----------|
b:-----------|
g:-----------|
d:--7-5-2-2--|
a:--7-5-2-2--|
d:--7-5-2-2--|
Tap to rate this tab
 
# A B C D E F G H I J K L M N O P Q R S T U V W X Y Z