Guitaretab - guitar tabs
Song name
# A B C D E F G H I J K L M N O P Q R S T U V W X Y Z

D:a:d - Sleeping My Day Away tab

                              D A D

                        Sleeping My Day Away Solo




e |---------------------------------------|
B |---------------------------------------|
G |---------------------------------------|
D |---------------------------------------|
A |----6/8-8-8\6-6-6\4-4-4\3-3/4/6/8~-----|
E |-6~------------------------------------|

e |-----------------------------------------------|
B |-----------------------------------------------|
G |-----------------------------------------------|
D |---8-10-11-10-8--------------------------------|
A |-8--------------11-9~----9h11p9-8~---8h11p8~---|
E |-----------------------------------------------|
[ Tab from: http://www.guitaretab.com/d/dad/52243.html ]
e |-----------------------------|
B |-----------------------------|
G |-----------------------------|
D |-----------------------------|
A |-8----------8---------9-10~--|
E |---8b9r8-6----8b9r8-6--------|

e |------------------------|
B |------------------------|
G |----------------8p0h6~--|
D |-------8----------------|
A |-6-8-9---9-8~-----------|
E |------------------------|

e |---------------------------------------------------|
B |-------------------------------------------10-11---|
G |------------------8-10-8~-----8---10---11----------|
D |-----8-11------11----------8---8----8----8---------|
A |-8-9-------8-9-------------------------------------|
E |---------------------------------------------------|

e |------------------------------|
B |------------------------------|
G |-6-6-3--6-6-3--6-6--6-8-10-8--|
D |-6-6-3--6-6-3--6-6--6-8-10-8--|
A |------------------------------|
E |------------------------------|


Related for Sleeping My Day Away tab