Song name
# A B C D E F G H I J K L M N O P Q R S T U V W X Y Z

D:a:d - Lawrence Of Suburbia tab

Artist: DAD
Song: Lawrence Of Suburbia
Tuning: Standard EADGBe

Capo 2. bånd
e|------------------------------|
B|------------------------------|
G|--------5------------5--------|
D|--2-3-2-2-3-2--2-3-2-2-2-3-2--|
A|--0-0-0-0-0-0--0-0-0-0-0-0-0--|
E|------------------------------|

Verset kører i akkorderne D, C, A, G.
I må selv lige fjolle lidt rundt med dem ;)

 D       C     A       G
|-------|-----|-------|-------|
|-------|-----|-------|-------|
|-------|-----|-------|-------|
|--7-9--|--7--|--2-3--|-------|
|--5-5--|--3--|--0-0--|--5-7--|
|-------|-----|-------|--3-3--|

Held og lykke!
(Lad venligst være med at kommentere min tab som lort, eftersom at jeg kun har brugt en 
minutters tid på at finde ud af det).
Tap to rate this tab
# A B C D E F G H I J K L M N O P Q R S T U V W X Y Z