Song name
# A B C D E F G H I J K L M N O P Q R S T U V W X Y Z

Dado Topic - Apsolutno Sve chords

Dado Topić
APSOLUTNO SVE

uvod
D D4 D G A D D4 D G A G A

E||---------0-2-2-2-2->1--------------0-2-3-2-----|
H||---0-2-3--------------3->5---0-2-3-------------|
G||-2-------------------------2---------------2-0-|
D||-----------------------------------------------|
A||-----------------------------------------------|
E||-----------------------------------------------|

E||---------------5--3-2-3-3-2-------------------|
H||---0-3-353-2----------------3-----------------|
G||-0-----------2----------------2-2-2-0-4-2-----|
D||----------------------------------------------|
A||----------------------------------------------|
E||----------------------------------------------|


       G                A
Jos ne mogu,da ti oprostim!
      G             A
Samo zelim,da zaboravim!
        G           A
i nije fer,svatko ima neki san
        G              D     A
taj kog volis! nije te dostojan!


 G        D                  A
Apsolutno sve,znacis za mene i bilo
        D                    G
gdje da krenem ne mogu bez tebe!
             e                     D
i svaki novi dan,zivim za tebe
          G   A                G
jer ja ne mogu i neznam drukcije


           h      A    G
Baby I love you,
           h      A
Baby i need you


        G          A
I nije lako,priznajem!
        G             A
Jos se borim,neodustajem
        G      A
I nije fer,kad vjerujes u san,
   G                  D     A
taj kog volis,nije te dostojan!


G          D                   A
Apsolutno sve,znacis za mene i
             D                    G
bilo gdje da krenem ne mogu bez tebe!
             e                     D
i svaki novi dan,zivim za tebe
          G   A               D           A
jer ja ne mogu i neznam drukcije


h                      A
kad jednom umoran od lutanja
G                    D
zastanem pred tvojim vratima
G            D            G           A
reci mi i bez pitanja dal gotovo je s nama?

Apsolutno sve,znacis za mene i bilo
gdje da krenem ne mogu bez tebe!
i svaki novi dan,zivim za tebe
jer ja ne mogu i neznam drukcije

Apsolutno sve i bilo gdje da krenem
ne mogu bez tebe!
i svaki novi dan,zivim za tebe
jer ja ne mogu i neznam drukcije

Apsolutno sve,znacis za mene i bilo
gdje da krenem ne mogu bez tebe!
i svaki novi dan,zivim za tebe
jer ja ne mogu i neznam drukcije
Tap to rate this tab
# A B C D E F G H I J K L M N O P Q R S T U V W X Y Z