Guitaretab - guitar tabs
Song name
# A B C D E F G H I J K L M N O P Q R S T U V W X Y Z

Daft Punk - Television Rules The Nation tab

-------------------------------------------------|                h=hammer on
-------------------------------------------------|                r=let ring out
-----------r------------------r------------------|
----h---7--5-----10-----9-9---7------------------|
-5--7--------------------------------------------|
-------------------------------------------------|
tel-a--vis-ion  rules  the-na--------------------|tion

Chords:

---------------------------------------|
-----------------------------2---------|
--9---11-12-------5----4-4---2---------|
--9---11-12-------5----4-4---2---------|
--7---9--10-------3----2-2-------------|
---------------------------------------|
[ Tab from: http://www.guitaretab.com/d/daft-punk/175609.html ]
Related for Television Rules The Nation tab
Advertisement will be closed in 10 seconds