Song name
# A B C D E F G H I J K L M N O P Q R S T U V W X Y Z

Daft Punk - Around The World tab

Artist: Daft punk
      Title: Around the World
           Album: Homework


Standard Tuning
- written in 4/4 time
- tabbed for guitar

These riffs can be played differently, but this way gives the sound a deeper tone.
e|-----------------------------------------------------| (riff 1)
B|-----------------------------------------------------|
G|-----------------------------------------------------|
D|-----------------------------------------------------|
A|---7/9--7--5-----------------------------------------|
E|--------------8--7--5--3-----------------------------|

0:00 - intro riff 1

e|-----------------------------------------------------| (riff 2)
B|-----------------------------------------------------|
G|-----------------------------------------------------|
D|-----------------------------------------------------|
A|---------------------------5-7--7--7--7--------------|
E|---5--5--5--5-7-8--8--8--8---------------------------|

0:31 - riff 2 and riff 1
--------------------

Sci-fi sound

e|---12--10--------------------------------------------|
B|-----------12--10--10--10----------------------------|
G|-----------------------------------------------------|
D|-----------------------------------------------------|
A|-----------------------------------------------------|
E|-----------------------------------------------------|

0:00 - fades in with the intro

e|---10------------------------------------------------|
B|-------13--12--10------10------10--12----------------|
G|-------------------12------12------------------------|
D|-----------------------------------------------------|
A|-----------------------------------------------------|
E|-----------------------------------------------------|

e|---12--10--------------------------------------------|
B|-----------12--10------10------10--------------------|
G|-------------------12------12------9-----------------|
D|-----------------------------------------------------|
A|-----------------------------------------------------|
E|-----------------------------------------------------|

0:31 - played over riffs 2 and 1
--------------------

Twangy sound 

e|-----------------------------------------------------|
B|-----------------------------------------------------|
G|--------0--------------------------------------------|
D|---5h7-----------------------------------------------|
A|--------------5--------------------------------------|
E|-----------7-----------------------------------------|

0:47 - use wah-wah pedal
--------------------

Around the world vocal

e|-----------------------------------------------------|
B|-------------------------------12--------------------|
G|---12--11--12--14--12--11--12------12----------------|
D|-----------------------------------------------------|
A|-----------------------------------------------------|
E|-----------------------------------------------------|

1:04 - three word lyrics
--------------------

Second Bass riff

e|-----------------------------------------------------|
B|-----------------------------------------------------|
G|-----------------------------------------------------|
D|-----------------------------------------------------|
A|------5--7-x-5-7-5-x-5h7-----------------------------|
E|---0---------------------7-8-x-7h8--5--x-7/3---------|

e|-----------------------------------------------------|
B|-----------------------------------------------------|
G|-----------------------------------------------------|
D|-----------------------------------------------------|
A|------5--7-x-5-7-5-x-5h7-----------------------------|
E|---0---------------------7-8-x-7h8--0-0-5/3----------|

1:58 - listen to the song to get the timing down
--------------------

Electro sound

e|-----------------------------------------------------|
B|--------------8-7--8-(7)(8)--------------------------|
G|-----------4-------------------4---------------------|
D|---9/5--4--4-----------9/5--4--4--5-4--5-------------|
A|---9/5--5--5-----------9/5--5--5---------------------|
E|-----------------------------------------------------|

3:17 - hard sound to imitate


tabbed by: Blaine Arihara
Tap to rate this tab
# A B C D E F G H I J K L M N O P Q R S T U V W X Y Z