Song name
# A B C D E F G H I J K L M N O P Q R S T U V W X Y Z

Daft Punk - Aerodynamic tab

E-----------------------------------|
B-----------------------------------|
G-19--16--19--16--19--16--19--16----|
D---16--16--16--16--16--16--16--16--|
A-----------------------------------|
E-----------------------------------|

E-----------------------------------|
B-----------------------------------|
G-19--16--19--16--19--16--19--16----|
D---18--18--18--18--18--18--18--18--|
A-----------------------------------|
E-----------------------------------|

E-----------------------------------|
B-20--21--20--21--20--21--20--21----|
G---16--16--16--16--16--16--16--16--|
D-----------------------------------|
A-----------------------------------|
E-----------------------------------|

E-------------------------------------------------|
B-------------------------------------------------|
G-21-14-18-14-21-14-18-14-21-14-18-14-21-14-18-14-|
D-------------------------------------------------|
A-------------------------------------------------|
E-------------------------------------------------|
Tap to rate this tab
 
# A B C D E F G H I J K L M N O P Q R S T U V W X Y Z