Song name
# A B C D E F G H I J K L M N O P Q R S T U V W X Y Z

Daft Punk - Aerodynamic tab

This is Daft Punk's Aerodynamic. its a great song and very fun to play.
I saw a lot of tabs and i thought they were a little more difficult than
they should have been, so i composed a tab to how I would play it.
This version of the song is played with finger picking.
The song takes a while to get used to, i got extremely frustrated making
it. Just practice a lot. Enjoy.

e|-----------------|------------------|------------------|------------------|
B|-----------------|------------------|------------------|------------------|
G|-----------------|------------------|------------------|------------------|
D|-----------------|------------------|------------------|------------------|
A|--17--9--14--9---|--17--9--14--9----|---17--9--14--9---|---17--9--14--9---|
E|-----------------|------------------|------------------|------------------|

e|-----------------|------------------|------------------|------------------|
B|-----------------|------------------|------------------|------------------|
G|-----------------|------------------|------------------|------------------|
D|-----------------|------------------|------------------|------------------|
A|--17--11--14--11-|-17--11--14--11---|-17--11--14--11---|--17--11--14--11--|
E|-----------------|------------------|------------------|------------------|

e|-----------------|------------------|------------------|------------------|
B|-----------------|------------------|------------------|------------------|
G|-----------------|------------------|------------------|------------------|
D|-17--9--14--9----|--17--9--14--9----|--17--9--14--9----|--17--9--14--9----|
A|-----------------|------------------|------------------|------------------|
E|-----------------|------------------|------------------|------------------|

e|-----------------|------------------|------------------|------------------|
B|-----------------|------------------|------------------|------------------|
G|-----------------|------------------|------------------|------------------|
D|--14--7--11--7---|--14--7--11--7----|---14--7--11--7---|--14--7--11--7----|
A|-----------------|------------------|------------------|------------------|
E|-----------------|------------------|------------------|------------------|

e|-----------------|------------------|------------------|------------------|
B|--15--7--12--7---|--15--7--12--7----|---15--7--12--7---|---15--7--12--7---|
G|-----------------|------------------|------------------|------------------|
D|-----------------|------------------|------------------|------------------|
A|-----------------|------------------|------------------|------------------|
E|-----------------|------------------|------------------|------------------|

e|-----------------|------------------|------------------|------------------|
B|--15--9--12--9---|---15--9--12--9---|---15--9--12--9---|---15--9--12--9---|
G|-----------------|------------------|------------------|------------------|
D|-----------------|------------------|------------------|------------------|
A|-----------------|------------------|------------------|------------------|
E|-----------------|------------------|------------------|------------------|

e|--15--7--12--7---|--15--7--12--7----|--15--7--12--7----|--15--7--12--7----|
B|-----------------|------------------|------------------|------------------|
G|-----------------|------------------|------------------|------------------|
D|-----------------|------------------|------------------|------------------|
A|-----------------|------------------|------------------|------------------|
E|-----------------|------------------|------------------|------------------|

e|--12--5--9--5----|---12--5--9--5----|---12--5--9--5----|---12--5--9--5----|
B|-----------------|------------------|------------------|------------------|
G|-----------------|------------------|------------------|------------------|
D|-----------------|------------------|------------------|------------------|
A|-----------------|------------------|------------------|------------------|
E|-----------------|------------------|------------------|------------------|
Tap to rate this tab
 
# A B C D E F G H I J K L M N O P Q R S T U V W X Y Z