Song name
# A B C D E F G H I J K L M N O P Q R S T U V W X Y Z

Daft Punk - End Of Line tab

E-------------]
B-10-10-10-10-]    <-----Played repeatedly throughout the song
G-------------]
D-------------]
A-------------]
E-------------]

E----------------]
B----------------]            Listen to the song for the strumming pattern
G----------------]
D-7-7-7-7-0-0-3-3]
A----------------]
E----------------]

E-----------------]                  E-----5-----------]
B-----------------]                  B-3-5-------3-1---]
G-----2-----------]                  G-------2---------]
D-0-2-------0-----]          OR      D---------------3-]
A-------0-----3---]                  A-----------------]
E---------------1-]                  E-----------------]
Tap to rate this tab
 
# A B C D E F G H I J K L M N O P Q R S T U V W X Y Z