Song name
# A B C D E F G H I J K L M N O P Q R S T U V W X Y Z

Daft Punk - Aerodynamic tab

                           DAFT PUNK-AERODYNAMIC



e|-------------|------------|------------|-------------|
B|-------------|------------|------------|-------------|
G|-------------|------------|--12---9----|-------------|
D|--12---9-----|--12---9----|-----9---9--|--14---11----|
A|-----9---9---|----11---11-|------------|----12---12--|
E|-------------|------------|------------|-------------|
       4x           4x           4x           4x

e|-------------|-------------|--15---12----|--12---9----|
B|--15---12----|--15---12----|----14---14--|----10--10--|
G|----12---12--|----13---13--|-------------|------------|
D|-------------|-------------|-------------|------------|
A|-------------|-------------|-------------|------------|
E|-------------|-------------|-------------|------------|
       4x           4x           4x           4x

e|-------------|-------------|--15---12----|--12---9----|
B|--15---12----|--15---12----|----12---12--|----10--10--|
G|----11---11--|----13---13--|-------------|------------|
D|-------------|-------------|-------------|------------|
A|-------------|-------------|-------------|------------|
E|-------------|-------------|-------------|------------|
       4x           4x           4x           4x

e|--------------|------------|--15---12----|--12---9----|
B|--15---12-----|--12---9----|----12---12--|----10--10--|
G|----11---11---|----9---9---|-------------|------------|
D|--------------|------------|-------------|------------|
A|--------------|------------|-------------|------------|
E|--------------|------------|-------------|------------|
        4x            4x          4x           4x
Tap to rate this tab
# A B C D E F G H I J K L M N O P Q R S T U V W X Y Z