Song name
# A B C D E F G H I J K L M N O P Q R S T U V W X Y Z

Daft Punk - Derezzed tab

Eb|----------------0----------------------|
Bb|---------------------------------------|
Gb|-------------------4p0------------0h4--|
Db|--2-----2/5--5---------------0h2-------|
Ab|------------------------5p0------------|
Eb|-----0---------------------------------|

     Higher octaves part.

Eb|------------------------------------------------|
Bb|--------------------17--------------------------|
Gb|------------------------16p0--------------0h16--|
Db|--14-----14/17--17------------------0h14--------|
Ab|------------------------------17p0--------------|
Eb|------0-----------------------------------------|
Tap to rate this tab
# A B C D E F G H I J K L M N O P Q R S T U V W X Y Z