Song name
# A B C D E F G H I J K L M N O P Q R S T U V W X Y Z

Daft Punk - Something About Us tab

-------------------------------------------------------------------------------
                             Something About Us - Daft Punk
-------------------------------------------------------------------------------
Tabbed by: redtemplepilots
Email:  isrod321@hotmail.com

Tuning:  Standard


Rhythm Section:
Alternate between Fig.1 and Fig.2 (repeat throughout entire song)

e|----x-------x-------1-------1--|
B|----3-------1-------1-------0--|
G|----3-------0-------2-------0--|      Fig.1
D|----3-------2-------0-------0--|
A|----1-------0-------x-------2--|
E|----x-------x-------x-------3--|


e|----x-------x-------1-------3--|
B|----3-------2-------1-------3--|
G|----2-------0-------2-------0--|      Fig.2
D|----3-------2-------0-------0--|
A|----1-------0-------x-------2--|
E|----x-------x-------x-------3--|


Rhythm Part II: Begin after “Rhythm Section” is played twice.

e|--x-----------------x-----------------x----------------x--------------|
B|--x-----------------x-----------------x----------------x--------------|
G|--x--2--------------x--2--------------x--2-------------x--2-----------| 6x
D|--x----3------------x----3------------x----3-----------x----3---------|
A|--x------5----3h5---x------5----3h5---x------5---3h5---x------5---3h5-|
E|--x-----------------x-----------------x----------------x--------------|


Lead Section Part I:

e|-------------------------------------------------------------------------|
B|-------------------------8-----------8--10------10p8----10---------------|
G|--7---9--10------9---10---------10-------------------10----10--7---------|
D|-------------------------------------------------------------------------|
A|-------------------------------------------------------------------------|
E|-------------------------------------------------------------------------|


e|-------------------------------------------------------------------------|
B|-------------------------8-----------8--10------10p8----10---------------|
G|--7---9--10------9---10---------10-------------------10----10--7---------|
D|-------------------------------------------------------------------------|
A|-------------------------------------------------------------------------|
E|-------------------------------------------------------------------------|


Lead Section Part II (Spoken Part):

e|-----------8--8--------10--8---------------8--8----------------|
B|----8--10----------10---------------8--10----------8--10-------|
G|----------------------------------------------------------7----|
D|---------------------------------------------------------------|
A|---------------------------------------------------------------|
E|---------------------------------------------------------------|


e|-------------------------------------------------------------------------|
B|---------10--8---------------------------8-----------8--10--8------------|
G|--7--10---------10--7----7-7------7--10----------10------------10--9--7--|
D|------------------------------10-----------------------------------------|
A|-------------------------------------------------------------------------|
E|-------------------------------------------------------------------------|


e|-----------------------8--8--------10--8----------------8--8-------------|
B|----------------8--10----------10---------------8---10----------8--10----|
G|-7--7------------------------------------------------------------------7-|
D|--10---------------------------------------------------------------------|
A|-------------------------------------------------------------------------|
E|-------------------------------------------------------------------------|


e|-------------------------------------7-----------------------------------|
B|---------10--8-----------------------------------------------------10--8-|
G|--7--10---------10--7----7-7------7--------------7--7------7-------------|
D|--------------------------------10-----------------------10-----10-------|
A|-------------------------------------------------------------------------|
E|-------------------------------------------------------------------------|


e|---------10----|--------------------------------------------------|
B|--10--8--------|------------------8-------------------------------|
G|---------------|--------7--9--10-----9--10--7--9------7-----------|
D|---------------|----10----------------------------10--------------|
A|---------------|--------------------------------------------------|
E|---------------|--------------------------------------------------|


e|-------------------------------------------|
B|------------------8------------------------|
G|--------7--9--10-----9--10--7--9------7----| 4x
D|----10----------------------------10-------|
A|-------------------------------------------|
E|-------------------------------------------|


The rest of the song can be improvised along this scale and any variation of this scale. 
The rest is up to you. Thanks and good luck!

e|---------------------------------------8--10-------------------|
B|--------------------------------8--10--------------------------|
G|-------------------------7--10---------------------------------|
D|------------------7--10----------------------------------------|
A|-----------8--10-----------------------------------------------|
E|----8--10------------------------------------------------------|


************************************
| /   slide up
| \   slide down
| h   hammer-on
| p   pull-off
| ~   vibrato
| +   harmonic
| x   Mute note
| b   Bend
| pb  Pre-bend
| br  Bend release
| pbr Pre-bend release
| brb Bend release bend
************************************
Tap to rate this tab
 
# A B C D E F G H I J K L M N O P Q R S T U V W X Y Z