Song name
# A B C D E F G H I J K L M N O P Q R S T U V W X Y Z

Daft Punk - Television Rules The Nation tab

*Distortion recommended
-Standard Tuning

Vocal line:

e|--------------------------------------------------------------------------|
B|-----------------1---0-0--------------------------------------------------|
G|-------2---0---------0-0---2----------------------------------------------|
D|-0-2---2---0-----------------2--------------------------------------------|
A|-0-2----------------------------------------------------------------------|
E|--------------------------------------------------------------------------|

Harmony Line:

e|--------------------------------------------------------------------------|
B|--------------------------------------------------------------------------|
G|--------------------------------------------------------------------------|
D|-2-----4--5---------------------------------------------------------------|
A|-2-----4--5------3-----2--0-----------------------------------------------|
E|-----------------3-----2--0-----------------------------------------------|

Additional Bass Line

G|--------------------------------------------------------------------------|
D|-2-----4--5---------------------------------------------------------------|
A|--------------------------------------------------------------------------|
E|-----------------3-----2--0-----------------------------------------------|

Happy playing. DP Rules, Fools.
Tap to rate this tab
# A B C D E F G H I J K L M N O P Q R S T U V W X Y Z